20160915

PÁL UTCAI FIÚK CSAK ÚGY CSINÁL TAB (INTRO)

Pál Utcai Fiúk - Csak Úgy Csinál - rövid akusztikus gitár szóló az elején.



PÁL UTCAI FIÚK CSAK ÚGY CSINÁL TAB (INTRO)

PDF >>

Intro

   Aadd9                            A
e--(0)------------------------------------------------------------------
B--(0)------------------5-----------------------------------------------
G--(2)--------------4/6---6p4----4-4/6----------------------------------
D--(2)-----------------------7------------------------------------------
A--(0)-------------------------7----------------------------------------
E-----------------------------------------------------------------------

                     Dadd9
e-----------------------------------------------------------------------
B------5/7-5------------------------------------------------------------
G--------------6---6-7--------------------------------------------------
D----------------7------------------------------------------------------
A-----------------------------------------------------------------------
E-----------------------------------------------------------------------

                     A
e----------------7-9----------------------------------------------------
B---------7-9-10-----10-------------------------------------------------
G-----7/9---------------------------------------------------------------
D-----------------------------------------------------------------------
A-----------------------------------------------------------------------
E-----------------------------------------------------------------------



20160212

HOLDVIOLA LÁTOD ÉDESANYÁM TAB

Holdviola - Látod Édesanyám egy szál gitár kíséretében.



HOLDVIOLA LÁTOD ÉDESANYÁM TAB


Intro

e-----------------------------------------------------------------------
B---------3-----------0---------3p2-----------0-------------------------
G-------4---4-------4---4-------------4-----4---4-----------------------
D-----4---------0h2-------2---4-----4-----2-------0---------------------
A---2---------4-------------0-----------0-------------------------------
E-----------------------------------------------------------------------


e-----------------------------------------------------------------------
B-----------------------------------------------------------------------
G---2-----0-----------0-----4---------4-3-------------------------------
D-------4---4---2---4---4-0-----4---4-----------------------------------
A-----2-------2---2-----------------------------------------------------
E---3-----------0-----------2-----2-------------------------------------


Látod Édesanyám ...

e-----------------------------------------------------------------------
B---------3-----------0---------3p2-----------0-------------------------
G-------4---4-------4---4-------------4-----4---4-----------------------
D-----4---------0h2-------2---4-----4-----2-------0---------------------
A---2---------4-------------0-----------0-------------------------------
E-----------------------------------------------------------------------