20171024

KORÁL HOMOK A SZÉLBEN TAB (INTRO SZÓLÓ)

Korál - Homok A Szélben intro szóló (0:00 - 0:28)


KORÁL HOMOK A SZÉLBEN TAB INTRO SZÓLÓ TAB

GP5 + GP6 + PDF >>

(0:00 - 0:30)

e-----------------------------------------------------------------------
B-----------15.-15p14-----17(19)(17)-15.-17(19)~-----17-15-17-----------
G---16~---------------14.------------------------------------16~--------
D-----------------------------------------------------------------------
A-----------------------------------------------------------------------
E-----------------------------------------------------------------------


e-------17(19)-----17-14------------------------------------------------
B---15.-----------------17~-----17(19)-15-------------------------------
G----------------------------------------16~----------------------------
D-----------------------------------------------------------------------
A-----------------------------------------------------------------------
E-----------------------------------------------------------------------


e-----------------------------------------------------------------------
B---------------14------------------------------------------------------
G------------16----15---------------------------------------------------
D------14-17----------16------------------------------------------------
A---16-------------------16---------------------------------------------
E-----------------------------------------------------------------------
    x  x  x  x        x  x


20170315

OSSIAN EGYEK VAGYUNK TAB (INTRO SOLO)

Ossian - Egyek Vagyunk intro szóló + ritmus gitár (0:00 - 0:30)


OSSIAN EGYEK VAGYUNK INTRO SZÓLÓ TAB

GP5 + GP6 + PDF >>

eb----------------------------------------------------------------------
Bb---8(10)~-----------8-6-8-\-------------------------------------------
Gb----------------------------5~-----------/10p9-10~--------------------
Db----------------------------------------------------------------------
Ab----------------------------------------------------------------------
Eb----------------------------------------------------------------------


eb----------------------------------------------------------------------
Bb----------------------------------------------------6-5-8-------------
Gb---9-7-9-10---------------------------------------7-------------------
Db------------7\5/7~-------8p7-8~-----------------7---------------------
Ab------------------------------------------5-7-8-----------------------
Eb----------------------------------------------------------------------
                                            x x x x x

eb----------------------------------------------------------------------
Bb---8(10)~-----------8-6-8.--13~-------\-------------------------------
Gb-----------------------------------------/10p9-10~--------------------
Db----------------------------------------------------------------------
Ab----------------------------------------------------------------------
Eb----------------------------------------------------------------------