20121106

P MOBIL ÖRÖKMOZGÓ TAB

P MOBIL ÖRÖKMOZGÓ TAB                                   Nyomtatható tab itt

intro   2x

e-------------------------------------------------------------------
H-------------------------------------------------------------------
G-7--7--7-7--7--10-10-1010-10-9--9--9-9--9--7--7--7-7--7------------
D-7--7--7-7--7--10-10-1010-10-9--9--9-9--9--7--7--7-7--7------------
A-5--5--5-5--5--8--8--8-8--8--7--7--7-7--7--5--5--5-5--5------------
E-------------------------------------------------------------------


gitár1                                                          2x
e-------------------------------------------------------------------
H-------------------------------------------------------------------
G-7-------------10------------9-------------7-----------------------
D-7-------------10------------9-------------7-----------------------
A-5-------------8-------------7-------------5-----------------------
E-------------------------------------------------------------------

gitár2
e-------------------------------------------------------------------
H-13p10---13p10---13p10---13p10---13p10---13p10---13p10---13p10-----
G------10------10------10------10------10------10------10------10---
D-------------------------------------------------------------------
A-------------------------------------------------------------------
E-------------------------------------------------------------------

e-------------------------------------------------------------------
H----------12----12----12-15-13-12----------------------------------
G-------12----12----12-------------12----------11----14-12-11-------
D-12h14-------------------------------------12----12----------12~---
A--------------------------------------12h14------------------------
E-------------------------------------------------------------------


verse

e-------------------------------------------------------------------
H-------------------------------------------------------------------
G-------------------------------------------------------------------
D-7-7-7-7-7-7-7-7-1010101010101010-9-9-9-9-9-9-9-9-7-7-7-7-7-7-7-7--
A-5-5-5-5-5-5-5-5-8-8-8-8-8-8-8-8--7-7-7-7-7-7-7-7-5-5-5-5-5-5-5-5--
E-------------------------------------------------------------------
  x   x   x   x   x   x   x   x    x   x   x   x   x   x   x   x

e-------------------------------------------------------------------
H-------------------------------------------------------------------
G-------------------------------------------------------------5~-7-7
D-7-7-7-7-7-7-7-7-1010101010101010-9-9-9-9-9-9-9-9-7-7-7-7-7-7------
A-5-5-5-5-5-5-5-5-8-8-8-8-8-8-8-8--7-7-7-7-7-7-7-7-5-5-5-5-5--------
E-------------------------------------------------------------------
  x   x   x   x   x   x   x   x    x   x   x   x   x   x   x  


e-------------------------------------------------------------------
H-------------------------------------------------------------------
G-7-------------10------------9-------------7-----------------------
D-7-------------10------------9-------------7-----------------------
A-5-------------8-------------7-------------5-----------------------
E-------------------------------------------------------------------


e-------------------------------------------------------------------
H-------------------------------------------------------------------
G-7-------------10------------9-------------7-----------------------
D-7-------------10------------9-------------7-----------------------
A-5-------------8-------------7-------------5-----------------------
E-------------------------------------------------------------------


refrén

e-------------------------------------------------------------------
H-------------------------------------------------------------------
G-12----10------------------12----10--------------------------------
D-12----10----------5-3-----12----10---------5-3--------------------
A-10----8----/5-3-------5---10----8---/5-3-------5------------------
E-----------------5------------------------5------------------------


e-------------------------------------------------------------------
H-------------------------------------------------------------------
G-12----10----9-------------6-5---6-5---6-5---6-5---------5-6~------
D-12----10----9-----------------7-----7-----7-----7-7---------------
A-10----8-----7-----------------------------------------------------
E-------------------------------------------------------------------


Szóló

e-------------------------------------------------------------------
H-13----------13--------13----------13-----13-----------------------
G-12(14)------12(14)----12(14)------12(14)-12(14)\(12)-10-----------
D---------------------------------------------------------12~-------
A-------------------------------------------------------------------
E-------------------------------------------------------------------


e---------------------------------------------------------10--10----
H-------------------------------------------------------10--10--10--
G-10h11p10--------------------------------------10---10-------------
D----------12-11-10----10--------------10--10-12--12----------------
A-------------------12----12-11-10-------12-------------------------
E----------------------------------13-------------------------------


e-10-10-10-10-10-10-10-10-10-10-10-10-13-13-13-13-13-13-15(17)-13---
H-10-10-10-10-10-10-10-10-10-10-10-10-10-10-10-10-10-10----------15~
G-------------------------------------------------------------------
D-------------------------------------------------------------------
A-------------------------------------------------------------------
E-------------------------------------------------------------------


e-------------------------------------------------------------------
H-15(18)\(15)/(18)\----13-12h13p12p10------------------13-----------
G------------------------------------12-10----10-12(14)--(14)\(12)--
D------------------------------------------12-----------------------
A-------------------------------------------------------------------
E-------------------------------------------------------------------


e-------------------------------------------------------------------
H-------------------------------------------------------------------
G-10-12p10----------------------------------------------------------
D----------12-12~---------------------------------------------------
A-------------------------------------------------------------------
E-------------------------------------------------------------------



a vége

gitár2

e-------------------------------------------------------------------
H-13-10---13-10---13-10---13-10---13-10---13-10---13-10---13-10-----
G------10------10------10------10------10------10------10------10---
D-------------------------------------------------------------------
A-------------------------------------------------------------------
E-------------------------------------------------------------------


e-------------------------------------------------------------------
H----------12----12----12-13-15~------------------------------------
G-------12----12----12----------------------------------------------
D-12h14-------------------------------------------------------------
A-------------------------------------------------------------------
E-------------------------------------------------------------------



Érdekel hogyan készült ez a gitár tab? Nézd meg!! -->