20130517

KIMNOWAK GYÉMÁNT TAB (INTRO)



KIMNOWAK GYÉMÁNT TAB

Intro

e-----------------------------------------------------------------------
H------------1------3-3-------------------------------------------------
G------------2------2-0----------0-0------------------------------------
D------------2------2-0------0h2----------------------------------------
A-----0------0--------x-------------------------------------------------
E-3-------------------3-------------------------------------------------


e-----------------------------------------------------------------------
H--------1-3------3-3---------------------------------------------------
G--------2-2------2-0-----------0---------------------------------------
D--------2-2------2-0-------0h2-----------------------------------------
A-0------0----------x---------------------------------------------------
E-------------------3---------------------------------------------------


e-----------------------------------------------------------------------
H--------1------3-3---3-------------------------------------------------
G--------2------2-0---0-----0---0---------------------------------------
D--------2------2-0---0---0---0-----------------------------------------
A-0------0--------x---x-------------------------------------------------
E-----------------3---3-------------------------------------------------


e-----------------------------------------------------------------------
H--------1-----------0-0------------------------------------------------
G--------2-----------0-0------------------------------------------------
D--------3-----------0-0------------------------------------------------
A-----------------------------------------------------------------------
E-1----------1-1-3-------5/7---3----------------------------------------


Refr akkordok

  C         G         Am        F

e-0---------3---------0---------1---------------------------------------
H-1---------3---------1---------1---------------------------------------
G-0---------0---------2---------2---------------------------------------
D-2---------0---------2---------3---------------------------------------
A-3---------2---------0---------3---------------------------------------
E-----------3-------------------1---------------------------------------