20170315

OSSIAN EGYEK VAGYUNK TAB (INTRO SOLO)

Ossian - Egyek Vagyunk intro szóló + ritmus gitár (0:00 - 0:30)


OSSIAN EGYEK VAGYUNK INTRO SZÓLÓ TAB

GP5 + GP6 + PDF >>

eb----------------------------------------------------------------------
Bb---8(10)~-----------8-6-8-\-------------------------------------------
Gb----------------------------5~-----------/10p9-10~--------------------
Db----------------------------------------------------------------------
Ab----------------------------------------------------------------------
Eb----------------------------------------------------------------------


eb----------------------------------------------------------------------
Bb----------------------------------------------------6-5-8-------------
Gb---9-7-9-10---------------------------------------7-------------------
Db------------7\5/7~-------8p7-8~-----------------7---------------------
Ab------------------------------------------5-7-8-----------------------
Eb----------------------------------------------------------------------
                                            x x x x x

eb----------------------------------------------------------------------
Bb---8(10)~-----------8-6-8.--13~-------\-------------------------------
Gb-----------------------------------------/10p9-10~--------------------
Db----------------------------------------------------------------------
Ab----------------------------------------------------------------------
Eb----------------------------------------------------------------------



eb----------------------------------------------------------------------
Bb------------10p8-10~-------11-10-11~---------/------------------------
Gb---9-7-9-10-----------------------------------------------------------
Db----------------------------------------------------------------------
Ab----------------------------------------------------------------------
Eb----------------------------------------------------------------------


eb----------------------------------------------------------------------
Bb------------------18-17-20-20(22)~-------------(22)(20)p18-18~--------
Gb---------------19-----------------------------------------------------
Db------------19--------------------------------------------------------
Ab---17-19-20-----------------------------------------------------------
Eb----------------------------------------------------------------------
     x  x  x  x  x

eb-----20---------------------------------------------------------------
Bb--18----18\17~-----------17\13/15~-----------15h18-15~~~--------------

Gb----------------------------------------------------------------------
Db----------------------------------------------------------------------
Ab----------------------------------------------------------------------
Eb----------------------------------------------------------------------