20171024

KORÁL HOMOK A SZÉLBEN TAB (INTRO SZÓLÓ)

Korál - Homok A Szélben intro szóló (0:00 - 0:28)


KORÁL HOMOK A SZÉLBEN TAB INTRO SZÓLÓ TAB

GP5 + GP6 + PDF >>

(0:00 - 0:30)

e-----------------------------------------------------------------------
B-----------15.-15p14-----17(19)(17)-15.-17(19)~-----17-15-17-----------
G---16~---------------14.------------------------------------16~--------
D-----------------------------------------------------------------------
A-----------------------------------------------------------------------
E-----------------------------------------------------------------------


e-------17(19)-----17-14------------------------------------------------
B---15.-----------------17~-----17(19)-15-------------------------------
G----------------------------------------16~----------------------------
D-----------------------------------------------------------------------
A-----------------------------------------------------------------------
E-----------------------------------------------------------------------


e-----------------------------------------------------------------------
B---------------14------------------------------------------------------
G------------16----15---------------------------------------------------
D------14-17----------16------------------------------------------------
A---16-------------------16---------------------------------------------
E-----------------------------------------------------------------------
    x  x  x  x        x  x



e-----------------------------------------------------------------------
B-----------15.-15p14-----17(19)(17)-15--17(19)~-----17-15-17-----------
G---16~---------------14.------------------------------------16~--------
D-----------------------------------------------------------------------
A-----------------------------------------------------------------------
E-----------------------------------------------------------------------


e-------17(19)-----17-14------------------------------------------------
B---15.-----------------17~-----17(19)-15-------------------------------
G----------------------------------------16~----------------------------
D-----------------------------------------------------------------------
A-----------------------------------------------------------------------
E-----------------------------------------------------------------------


e-----------------------------------------------------------------------
B---------------14------------------------------------------------------
G------------16----15---------------------------------------------------
D------14-17----------16------------------------------------------------
A---16-------------------16-14~-----------------------------------------
E-----------------------------------------------------------------------
    x  x  x  x        x  x