TAB RENDELÉS

Ha van olyan dal, amihez nem találsz Gitár tabot, Guitar Pro tabot, vagy Akkordmenetet  akkor itt lehetőséged van megrendelni.

Nincs más teendőd, mint  
  • küldeni egy e-mailt a deaktee@hotmail.com címre
  • csatolni a zenét (vagy egy YouTube linket) és  
  • leírni, hogy pontosan melyik rész kell egy számból pl. 0:25-1:23 ig stb.
  • a tárgyba mindig írd be, hogy "Gitár tab" (különben spam-ként jelenhet meg)
  •  
Rövid időn belül küldünk egy válaszlevelet, amely tartalmazza a gitár tab pontos árát, illetve, hogy az várhatóan mikorra készül el. (általában 5 munkanapon belül)


Választható formátumok:
  • Gitártab 
  • Guitar Pro Tab 
  • YouTube (slow down) video
  • Akkordmenet / akkord kíséret 

Az árak az adott dal nehézségétől, összetettségétől és hangminőségétől függően  
1000 - 5000 Ft között mozognak. Egy komolyabb rock-gitárszóló jóval több munkát igényel, mint egy 3 akkordos dal - ezért az érthetően többe is kerül majd.


Fizetési lehetőségek: Bankkártyával, Átutalással ill. PayPal.



GITÁRTAB MINTA

e-7-----7-12-7---7---7--11-7----7---7--11-7----7---7--------------------
B-----8--------8---0---------10---0---------10---0----------------------
G-----------------------------------------------------------------------
D-----------------------------------------------------------------------
A-----------------------------------------------------------------------
E-----------------------------------------------------------------------


e-12-7---7---7--12-7---7---7--11-7----7---11---7------------------------
B------8---0---------8---0---------10---0---10---0----------------------
G-----------------------------------------------------------------------
D-----------------------------------------------------------------------
A-----------------------------------------------------------------------
E-----------------------------------------------------------------------


e---7---12---7---12---7---12----7-10-7-10--8--8--7-7--5-5--3-3--2-2-----
B-8---0----8---0----8---0-----8-------------10----8----7----5----3------
G-----------------------------------------------------------------------
D-----------------------------------------------------------------------
A-----------------------------------------------------------------------
E-----------------------------------------------------------------------


e-0-0-------------------------------------------------------------------
B--1---3-0-1-0------0---0--1p0------------------------------------------
G---------------------2-------2p0----2p0--------------------------------
D--------------------------------4-2----4-2p0---------------------------
A--------------------------------------------3-2~-----------------------
E-----------------------------------------------------------------------


e-------------2--------------0-2---3------------------------------------
B-0---0---4-5--------0---0----------------------------------------------
G-----------------------------------------------------------------------
D-----------------------------------------------------------------------
A-----------------------------------------------------------------------
E-----------------------------------------------------------------------


e-------------2-----7.---5-3---2-0--------------------------------------
B-0---0---4-5-----0-8.---7-5-----0--------------------------------------
G-----------------------------------------------------------------------
D-----------------------------------------------------------------------
A-----------------------------------------------------------------------
E-----------------------------------------------------------------------



GUITAR PRO TAB MINTA






YOUTUBE 'SLOW DOWN' VIDEO MINTA




AKKORDMENET MINTA

HoneyBeast - A Legnagyobb hős


Akkordok

  Bbm    F/A   C#maj7  F#maj7    G#6      G#     C'fsz'  F7    G'sz'
e--1------1-----(4)----(1)--------4-------4--------------1--------------
H--2------1------6------2---------6-------4-------4------1------2-------
G--3------2------5------3---------5-------5-------3------2------3-------
D--3------3------6------3---------6-------6-------4------1------2-------
A--1------0------4------x---------x-------6-------3------3------x-------
E-----------------------2---------4-------4--------------1------3-------

  F#m     C#m    E         G#sus4  G#?
e--2------4------0-----------4------4-----------------------------------
H--2------5------0-----------4------4-----------------------------------
G--2------6------1-----------6------7-----------------------------------
D--4------6------2-----------x------x-----------------------------------
A--4------4------2-----------6------6-----------------------------------
E--2-------------0-----------4------4-----------------------------------



Bbm
A jó híremen nem eshet csorba,

F/A
Beállok én is a tornasorba.

C#maj7
Hiszem, hogy két paralel történet

F#maj7
A végtelenben összeérhet.



Bbm
Álmaimban nem ezt vártam,

F/A
De felébredtem és megtaláltam.

G#6
Szabad egy hely, és leparkolnék,

F#maj7
Veled az időben eltévednék.



G#
De tudom-e majd überelni anyádat?

C#maj7
És te nem mosod magad után a kádat.

C'fsz'             F7
Gyűjtünk lakásra és autóra,

F#maj7           G'sz'     F#m
Coelho-idézet a meghívókra…



Refrén:

C#m                  F#m
Te vagy a legnagyobb hős a világon:

E                 G#
Én a királynőd és te a királyom.

C#m                    F#m
Hova is rejtsem el a szívem tőled,

E                   G#
Nehogy a végén majd összetörjed.


Tovább ...


További információ és árajánlat kérés a deaktee@hotmail.com címen.