A következő címkéjű bejegyzések mutatása: gp6. Összes bejegyzés megjelenítése
A következő címkéjű bejegyzések mutatása: gp6. Összes bejegyzés megjelenítése

20170315

OSSIAN EGYEK VAGYUNK TAB (INTRO SOLO)

Ossian - Egyek Vagyunk intro szóló + ritmus gitár (0:00 - 0:30)


OSSIAN EGYEK VAGYUNK INTRO SZÓLÓ TAB

GP5 + GP6 + PDF >>

eb----------------------------------------------------------------------
Bb---8(10)~-----------8-6-8-\-------------------------------------------
Gb----------------------------5~-----------/10p9-10~--------------------
Db----------------------------------------------------------------------
Ab----------------------------------------------------------------------
Eb----------------------------------------------------------------------


eb----------------------------------------------------------------------
Bb----------------------------------------------------6-5-8-------------
Gb---9-7-9-10---------------------------------------7-------------------
Db------------7\5/7~-------8p7-8~-----------------7---------------------
Ab------------------------------------------5-7-8-----------------------
Eb----------------------------------------------------------------------
                                            x x x x x

eb----------------------------------------------------------------------
Bb---8(10)~-----------8-6-8.--13~-------\-------------------------------
Gb-----------------------------------------/10p9-10~--------------------
Db----------------------------------------------------------------------
Ab----------------------------------------------------------------------
Eb----------------------------------------------------------------------


20121121

DEÁK BILL ROSSZ VÉR TAB (SZÓLÓ)


Deák Bill Gyula - Rossz Vér gitár szóló tab az alábbi verzió alapján (3:03 - 4:06)


DEÁK BILL ROSSZ VÉR SZÓLÓ TAB

GP5 + GP6 + PDF >>

Szóló

e-----------------------------------------------------------------------
B-----------------------------------------------------------------------
G--------------------------------14(16)-14~~~---------------------------
D---------12-12-14~~~---------------------------------------------------
A------/14--------------------------------------------------------------
E-----------------------------------------------------------------------


e-----------------------------------------------------------------------
B------------------12-12-15~-----------15-15~---15p12-------------------
G------12-14(16)--------------------------------------14(16)-14~~~------
D---14------------------------------------------------------------------
A-----------------------------------------------------------------------
E-----------------------------------------------------------------------


e------12-12h14---------------------------------------------------------
B---12----------15~-----------12-15-15p12----------15-------------------
G----------------------------------------14(16)-12---14(16)-14~---------
D-----------------------------------------------------------------------
A-----------------------------------------------------------------------
E-----------------------------------------------------------------------


e-----------------------------------------------------------------------
B-----------------------------------------------------------------------
G---12h14p12-\11h12p11-\9h11p9-\7h9p7~~~--------------------------------
D-----------------------------------------------------------------------
A-----------------------------------------------------------------------
E-----------------------------------------------------------------------


e-----------------------------------------------------------------------
B-----------------------------------------------------------------------
G--------------------------------------------------12h14~~~-------------
D------7-9-9h10-9-7------------------------------12---------------------
A---10--------------10~------------------10-12/14-----------------------
E-----------------------------------10/12-------------------------------


e----12--------12-------------------------------------------------------
B--12--12-15-15---------------------------12-12-15-15(17)-15------------
G----------------(16)(14)-12h14-12-14(16)-------------------(16)(14)----
D-----------------------------------------------------------------------
A-----------------------------------------------------------------------
E-----------------------------------------------------------------------

Itt bevadul picit...
e------------------------------------------------------------12-15p12---
B---------------12-15-15(17)-15-12----------------------12-15--------15-
G-----12-14(16)-------------------(16)(14)p12--14--12h14----------------
D--14----------------------------------------14--14---------------------
A-----------------------------------------------------------------------
E-----------------------------------------------------------------------


e----12-----------------------------------------------------------------
B--12--15p12-------12-15------------------------------------------------
G-----------14(16)------(16)(14)p12-----12------------------------------
D----------------------------------14p12--14p12-----12------------------
A----------------------------------------------14-12--14p12-------------
E----------------------------------------------------------15-12\10-----


e-----------------------------------------------------------------------
B-----------------------------------------------------------------------
G-----------------12-------14p12-14~~~----------------------------------
D-------------12--------------------------------------------------------
A-----10-/14------------------------------------------------------------
E---12------------------------------------------------------------------


....aztán újra nyugi

e--15-17-17h19~--17h19~~~--------19p17p15-17~-----17h19-17~~~-----------
B-----------------------------------------------------------------------
G-----------------------------------------------------------------------
D-----------------------------------------------------------------------
A-----------------------------------------------------------------------
E-----------------------------------------------------------------------


e----12h14-14---------------------12-12---------------------------------
B--12--------15~--------12-15(17)-------15------------------------------
G-----------------------------------------14(16)---(14)p12--12h14~------
D---------------------------------------------------------14------------
A-----------------------------------------------------------------------
E-----------------------------------------------------------------------


e-----------------------------------------------------------------------
B-----------------------------------------------------------------------
G---12-14(16).----------------------------------------------------------
D-----------------------------------------------------------------------
A-----------------------------------------------------------------------
E-----------------------------------------------------------------------



20121113

ZÖLD A BÍBOR ÉS A FEKETE TAB


Intro

e-----2-------------2-------------3-------------3-------------------
B-------2-------------2-------------3-------------3-----------------
G-------------------------------------------------------------------
D---4-------------4-----------------------------------------  2x  --
A-2-------------2---------------2-------------2---------------------
E-----------------------------3-------------3-----------------------


Verse

e-----2-------------2-----------3---------0-------2-----------------
B-------2-------------2-----------3---------2-------2---------------
G-------------------------------------------------------------------
D---4-------------4---------------------2-------4-----------  4x  --
A-2-------------2---------------------0-------2---------------------
E-----------------------------3-------------------------------------


Bridge

e-------------------------------------------------------------------
B-------------------------------------------------------------------
G-------------------------------------------------------------------
D-----------7.----------------------------------------------  4x  --
A-9-7-9.----5.--4-5.--5-7-------------------------------------------
E-7-5-7.--------2-3.--3-5-------------------------------------------


Refr

e-------------------------------------------------------------------
B-------------------------------------------------------------------
G-------------------------------------------------------------------
D-7-----------------------------------------------7-----------------
A-5-------5-------9-----7---------9-7-9.----5.--5-5-----7-----------
E---------3-------7-----5---------7-5-7.----3.--3-------5-----------


e-------------------------------------------------------------------
B-------------------------------------------------------------------
G-------------------------------------------------------------------
D-7-----------------------------------------------------------------
A-5-------5-------9-------7-------5-5-5-5-5-5-5-5-7-7-7-7-7-7-7-7---
E---------3-------7-------5-------3-3-3-3-3-3-3-3-5-5-5-5-5-5-5-5---


Solo 1

e-------------------------------------------------------------------
B---7~~~~--\--------------------------------------------------------
G------------------9(11)(9)p7---9---(11).---------------------------
D----------------------------9--------------------------------------
A-------------------------------------------------------------------
E-------------------------------------------------------------------


e---------10-9------------------------------------------------------
B------12--------10---12~~~---\-------------------------------------
G---11--------------------------------------------------------------
D-------------------------------------------------------------------
A-------------------------------------------------------------------
E-------------------------------------------------------------------


e-------------------------------------------------------------------
B---10---------------------------7.---------------------------------
G---9---(11).-----7'-------------7.---------------------------------
D----------------------9---9p7-------9~-----------------------------
A-----------------------------9-------------------------------------
E-------------------------------------------------------------------


e-------------------------------------------------------------------
B----------------------7-----------7.-------------------------------
G---9(11)---9~---7h9p7-7--9-9p7--------9~---------------------------
D---------------------9---------9-----------------------------------
A-------------------------------------------------------------------
E-------------------------------------------------------------------


e-------------------------------------------------------------------
B-------------------------------------------------------------------
G---7---(9).--------------------------------------------------------
D-------------------------------------------------------------------
A-------------------------------------------------------------------
E-------------------------------------------------------------------


SZÓLÓ 1 + SZÓLÓ 2 GP6 + PDF >>