A következő címkéjű bejegyzések mutatása: intro. Összes bejegyzés megjelenítése
A következő címkéjű bejegyzések mutatása: intro. Összes bejegyzés megjelenítése

20170315

OSSIAN EGYEK VAGYUNK TAB (INTRO SOLO)

Ossian - Egyek Vagyunk intro szóló + ritmus gitár (0:00 - 0:30)


OSSIAN EGYEK VAGYUNK INTRO SZÓLÓ TAB

GP5 + GP6 + PDF >>

eb----------------------------------------------------------------------
Bb---8(10)~-----------8-6-8-\-------------------------------------------
Gb----------------------------5~-----------/10p9-10~--------------------
Db----------------------------------------------------------------------
Ab----------------------------------------------------------------------
Eb----------------------------------------------------------------------


eb----------------------------------------------------------------------
Bb----------------------------------------------------6-5-8-------------
Gb---9-7-9-10---------------------------------------7-------------------
Db------------7\5/7~-------8p7-8~-----------------7---------------------
Ab------------------------------------------5-7-8-----------------------
Eb----------------------------------------------------------------------
                                            x x x x x

eb----------------------------------------------------------------------
Bb---8(10)~-----------8-6-8.--13~-------\-------------------------------
Gb-----------------------------------------/10p9-10~--------------------
Db----------------------------------------------------------------------
Ab----------------------------------------------------------------------
Eb----------------------------------------------------------------------


20160915

PÁL UTCAI FIÚK CSAK ÚGY CSINÁL TAB (INTRO)

Pál Utcai Fiúk - Csak Úgy Csinál - rövid akusztikus gitár szóló az elején.



PÁL UTCAI FIÚK CSAK ÚGY CSINÁL TAB (INTRO)

PDF >>

Intro

   Aadd9                            A
e--(0)------------------------------------------------------------------
B--(0)------------------5-----------------------------------------------
G--(2)--------------4/6---6p4----4-4/6----------------------------------
D--(2)-----------------------7------------------------------------------
A--(0)-------------------------7----------------------------------------
E-----------------------------------------------------------------------

                     Dadd9
e-----------------------------------------------------------------------
B------5/7-5------------------------------------------------------------
G--------------6---6-7--------------------------------------------------
D----------------7------------------------------------------------------
A-----------------------------------------------------------------------
E-----------------------------------------------------------------------

                     A
e----------------7-9----------------------------------------------------
B---------7-9-10-----10-------------------------------------------------
G-----7/9---------------------------------------------------------------
D-----------------------------------------------------------------------
A-----------------------------------------------------------------------
E-----------------------------------------------------------------------



20141101

KESH MIZU INTRO TAB (MR2 AKUSZTIK)

Remek akusztikus gitár intro 0:00 - 0:24 között. "Elkövető": Öllős Dávid.


KESH MIZU INTRO TAB


e-----------------------------------------------------------------------
B-------6---------------8-------7-------6-----6-----5-------------------
G-----6-----6---------7-------7-------6-------6-----5-------------------
D---5---------------8-------6-------5---------5-----3-------------------
A-6---------------7-----------------------6-----5-----------------------
E-------------------------6-------5-------------------------------------


e---3-----3-------------------------------------------------------------
B-----5-----5-----------------------------------------------------------
G-------------5---------------------------------------------------------
D-----------------------------------------------------------------------
A-5-----5---------------------------------------------------------------
E-----------------------------------------------------------------------


e-----------------------------------------------------------------------
B-----5---3h5.--------5---3h5.--------6---5h6.----8---6---5---6---------
G---------------------------------------------------------5---6---------
D-----3---------------5---------------7-----------7---7-----------------
A-5-----5-----x-3-------3-----------------------------------------------
E-----------------------------x-6-------6-----x-6-6---6---5---5---------


e-----------------------------------------------------------------------
B-----5---3h5.--------5---3h5.--------6---5h6.----8-8-6-6-5---6---------
G---------------------------------------------------------5---6---------
D-----3---------------5---------------7-----------7-7-7-7---------------
A-5-----5-----x-3-------3-----------------------------------------------
E-----------------------------x-6-------6-----x-6-6-6-6-6-5---5---------



20130517

KIMNOWAK GYÉMÁNT TAB (INTRO)



KIMNOWAK GYÉMÁNT TAB

Intro

e-----------------------------------------------------------------------
H------------1------3-3-------------------------------------------------
G------------2------2-0----------0-0------------------------------------
D------------2------2-0------0h2----------------------------------------
A-----0------0--------x-------------------------------------------------
E-3-------------------3-------------------------------------------------


e-----------------------------------------------------------------------
H--------1-3------3-3---------------------------------------------------
G--------2-2------2-0-----------0---------------------------------------
D--------2-2------2-0-------0h2-----------------------------------------
A-0------0----------x---------------------------------------------------
E-------------------3---------------------------------------------------


e-----------------------------------------------------------------------
H--------1------3-3---3-------------------------------------------------
G--------2------2-0---0-----0---0---------------------------------------
D--------2------2-0---0---0---0-----------------------------------------
A-0------0--------x---x-------------------------------------------------
E-----------------3---3-------------------------------------------------


e-----------------------------------------------------------------------
H--------1-----------0-0------------------------------------------------
G--------2-----------0-0------------------------------------------------
D--------3-----------0-0------------------------------------------------
A-----------------------------------------------------------------------
E-1----------1-1-3-------5/7---3----------------------------------------


Refr akkordok

  C         G         Am        F

e-0---------3---------0---------1---------------------------------------
H-1---------3---------1---------1---------------------------------------
G-0---------0---------2---------2---------------------------------------
D-2---------0---------2---------3---------------------------------------
A-3---------2---------0---------3---------------------------------------
E-----------3-------------------1---------------------------------------



20121223

KALAPÁCS ANGYAL TAB (INTRO)


e----------------0------------------2-------------------------------
H-------------3-----3------------3-----3-----3----------------------
G----------0-----------0------2-----------2-----2-------------------
D-------2------------------0----------------------------------------
A----2--------------------------------------------------------------
E-0-----------------------------------------------------------------


e-------------0------------------------0----------------------------
H----------3-----3-----3------------3-----3-----3-------------------
G-------0-----------0------------0-----------0----------------------
D----2------------------------2-------------------------------------
A-3------------------------3----------------------------------------
E-------------------------------------------------------------------


e----------------0------------------2-------------------------------
H-------------3-----3------------3-----3-----3----------------------
G----------0-----------0------2-----------2-----2-------------------
D-------2------------------0----------------------------------------
A----2--------------------------------------------------------------
E-0-----------------------------------------------------------------


e-------------0----------0------------------------------------------
H----------3-----3-------3------------------------------------------
G-------0-----------0----0------------------------------------------
D----2-------------------2------------------------------------------
A-3----------------------3------------------------------------------
E-------------------------------------------------------------------


20121115

GANXSTA ZOLEE ÉS A KARTEL VATO LOCO TAB (INTRO)



e-------------------------------------------------------------------
H-------------------------------------------------------------------
G-------------------2.----------------------------------------------
D-2-2-2-2.--4.--5.------5-4---2---0-0-0-0.--2.--4.--5.--4-2---0-----
A-------------------------------------------------------------------
E-------------------------------------------------------------------


e-------------------------------------------0-0-0-0.----------------
H-------------------------------------------0-0-0-0.----------------
G-------------------------------------------2-2-2-2.----------------
D-----------0.--2.--4.--2-0-0---------------1-1-1-1.----1h2.--4.----
A-3-3-3-3.--------------------3---2---------------------------------
E-------------------------------------------------------------------