A következő címkéjű bejegyzések mutatása: kalapács. Összes bejegyzés megjelenítése
A következő címkéjű bejegyzések mutatása: kalapács. Összes bejegyzés megjelenítése

20121223

KALAPÁCS ANGYAL TAB (INTRO)


e----------------0------------------2-------------------------------
H-------------3-----3------------3-----3-----3----------------------
G----------0-----------0------2-----------2-----2-------------------
D-------2------------------0----------------------------------------
A----2--------------------------------------------------------------
E-0-----------------------------------------------------------------


e-------------0------------------------0----------------------------
H----------3-----3-----3------------3-----3-----3-------------------
G-------0-----------0------------0-----------0----------------------
D----2------------------------2-------------------------------------
A-3------------------------3----------------------------------------
E-------------------------------------------------------------------


e----------------0------------------2-------------------------------
H-------------3-----3------------3-----3-----3----------------------
G----------0-----------0------2-----------2-----2-------------------
D-------2------------------0----------------------------------------
A----2--------------------------------------------------------------
E-0-----------------------------------------------------------------


e-------------0----------0------------------------------------------
H----------3-----3-------3------------------------------------------
G-------0-----------0----0------------------------------------------
D----2-------------------2------------------------------------------
A-3----------------------3------------------------------------------
E-------------------------------------------------------------------