A következő címkéjű bejegyzések mutatása: kesh. Összes bejegyzés megjelenítése
A következő címkéjű bejegyzések mutatása: kesh. Összes bejegyzés megjelenítése

20141101

KESH MIZU INTRO TAB (MR2 AKUSZTIK)

Remek akusztikus gitár intro 0:00 - 0:24 között. "Elkövető": Öllős Dávid.


KESH MIZU INTRO TAB


e-----------------------------------------------------------------------
B-------6---------------8-------7-------6-----6-----5-------------------
G-----6-----6---------7-------7-------6-------6-----5-------------------
D---5---------------8-------6-------5---------5-----3-------------------
A-6---------------7-----------------------6-----5-----------------------
E-------------------------6-------5-------------------------------------


e---3-----3-------------------------------------------------------------
B-----5-----5-----------------------------------------------------------
G-------------5---------------------------------------------------------
D-----------------------------------------------------------------------
A-5-----5---------------------------------------------------------------
E-----------------------------------------------------------------------


e-----------------------------------------------------------------------
B-----5---3h5.--------5---3h5.--------6---5h6.----8---6---5---6---------
G---------------------------------------------------------5---6---------
D-----3---------------5---------------7-----------7---7-----------------
A-5-----5-----x-3-------3-----------------------------------------------
E-----------------------------x-6-------6-----x-6-6---6---5---5---------


e-----------------------------------------------------------------------
B-----5---3h5.--------5---3h5.--------6---5h6.----8-8-6-6-5---6---------
G---------------------------------------------------------5---6---------
D-----3---------------5---------------7-----------7-7-7-7---------------
A-5-----5-----x-3-------3-----------------------------------------------
E-----------------------------x-6-------6-----x-6-6-6-6-6-5---5---------