A következő címkéjű bejegyzések mutatása: pál utcai fiúk. Összes bejegyzés megjelenítése
A következő címkéjű bejegyzések mutatása: pál utcai fiúk. Összes bejegyzés megjelenítése

20160915

PÁL UTCAI FIÚK CSAK ÚGY CSINÁL TAB (INTRO)

Pál Utcai Fiúk - Csak Úgy Csinál - rövid akusztikus gitár szóló az elején.



PÁL UTCAI FIÚK CSAK ÚGY CSINÁL TAB (INTRO)

PDF >>

Intro

   Aadd9                            A
e--(0)------------------------------------------------------------------
B--(0)------------------5-----------------------------------------------
G--(2)--------------4/6---6p4----4-4/6----------------------------------
D--(2)-----------------------7------------------------------------------
A--(0)-------------------------7----------------------------------------
E-----------------------------------------------------------------------

                     Dadd9
e-----------------------------------------------------------------------
B------5/7-5------------------------------------------------------------
G--------------6---6-7--------------------------------------------------
D----------------7------------------------------------------------------
A-----------------------------------------------------------------------
E-----------------------------------------------------------------------

                     A
e----------------7-9----------------------------------------------------
B---------7-9-10-----10-------------------------------------------------
G-----7/9---------------------------------------------------------------
D-----------------------------------------------------------------------
A-----------------------------------------------------------------------
E-----------------------------------------------------------------------