A következő címkéjű bejegyzések mutatása: szóló. Összes bejegyzés megjelenítése
A következő címkéjű bejegyzések mutatása: szóló. Összes bejegyzés megjelenítése

20171024

KORÁL HOMOK A SZÉLBEN TAB (INTRO SZÓLÓ)

Korál - Homok A Szélben intro szóló (0:00 - 0:28)


KORÁL HOMOK A SZÉLBEN TAB INTRO SZÓLÓ TAB

GP5 + GP6 + PDF >>

(0:00 - 0:30)

e-----------------------------------------------------------------------
B-----------15.-15p14-----17(19)(17)-15.-17(19)~-----17-15-17-----------
G---16~---------------14.------------------------------------16~--------
D-----------------------------------------------------------------------
A-----------------------------------------------------------------------
E-----------------------------------------------------------------------


e-------17(19)-----17-14------------------------------------------------
B---15.-----------------17~-----17(19)-15-------------------------------
G----------------------------------------16~----------------------------
D-----------------------------------------------------------------------
A-----------------------------------------------------------------------
E-----------------------------------------------------------------------


e-----------------------------------------------------------------------
B---------------14------------------------------------------------------
G------------16----15---------------------------------------------------
D------14-17----------16------------------------------------------------
A---16-------------------16---------------------------------------------
E-----------------------------------------------------------------------
    x  x  x  x        x  x


20170315

OSSIAN EGYEK VAGYUNK TAB (INTRO SOLO)

Ossian - Egyek Vagyunk intro szóló + ritmus gitár (0:00 - 0:30)


OSSIAN EGYEK VAGYUNK INTRO SZÓLÓ TAB

GP5 + GP6 + PDF >>

eb----------------------------------------------------------------------
Bb---8(10)~-----------8-6-8-\-------------------------------------------
Gb----------------------------5~-----------/10p9-10~--------------------
Db----------------------------------------------------------------------
Ab----------------------------------------------------------------------
Eb----------------------------------------------------------------------


eb----------------------------------------------------------------------
Bb----------------------------------------------------6-5-8-------------
Gb---9-7-9-10---------------------------------------7-------------------
Db------------7\5/7~-------8p7-8~-----------------7---------------------
Ab------------------------------------------5-7-8-----------------------
Eb----------------------------------------------------------------------
                                            x x x x x

eb----------------------------------------------------------------------
Bb---8(10)~-----------8-6-8.--13~-------\-------------------------------
Gb-----------------------------------------/10p9-10~--------------------
Db----------------------------------------------------------------------
Ab----------------------------------------------------------------------
Eb----------------------------------------------------------------------


20160915

PÁL UTCAI FIÚK CSAK ÚGY CSINÁL TAB (INTRO)

Pál Utcai Fiúk - Csak Úgy Csinál - rövid akusztikus gitár szóló az elején.



PÁL UTCAI FIÚK CSAK ÚGY CSINÁL TAB (INTRO)

PDF >>

Intro

   Aadd9                            A
e--(0)------------------------------------------------------------------
B--(0)------------------5-----------------------------------------------
G--(2)--------------4/6---6p4----4-4/6----------------------------------
D--(2)-----------------------7------------------------------------------
A--(0)-------------------------7----------------------------------------
E-----------------------------------------------------------------------

                     Dadd9
e-----------------------------------------------------------------------
B------5/7-5------------------------------------------------------------
G--------------6---6-7--------------------------------------------------
D----------------7------------------------------------------------------
A-----------------------------------------------------------------------
E-----------------------------------------------------------------------

                     A
e----------------7-9----------------------------------------------------
B---------7-9-10-----10-------------------------------------------------
G-----7/9---------------------------------------------------------------
D-----------------------------------------------------------------------
A-----------------------------------------------------------------------
E-----------------------------------------------------------------------



20141101

QUIMBY SENKI SE MENEKÜL TAB (SZÓLÓ)

Standard hangolás, Capo a 2. bundon és egy brilliáns Kiss Tibor szóló 3:04 körül.



QUIMBY SENKI SE MENEKÜL SZÓLÓ TAB


e---9-7.----------------------------------------------------------------
B--7------7~------6h7-6--------------------7.--7.--7\6/7\6--/7.---------
G-7---------------------9-7-6--------------7.--7.--7\6/7\6--/7.---------
D-----------------------------9.----------------------------------------
A-----------------------------------------------------------------------
E-----------------------------------------------------------------------


e-2---3-2---------2-------------------2---------------------------------
B-----------5---------------2-------------------------------------------
G---------------------3-----------3-------------------------------------
D-----------------------------------------------------------------------
A-----------------------------------------------------------------------
E-----------------------------------------------------------------------


e-------2---------------2----------------2---------5-2------------------
B-----2-----2---------------2-------------------------------------------
G-2h4---------4---2h4---------2---/7-----------7---------6-----7--------
D-----------------------------------------------------------------------
A-----------------------------------------------------------------------
E-----------------------------------------------------------------------

20140331

HORVÁTH CHARLIE MINDENKI VALAKIÉ TAB (SZÓLÓ)



e-----------------------------------------------------------------------
B-----------------------------------------------------------------------
G-14(16)---14(16)(14)p12-14-p-12----12.--12-----------------------------
D--------------------------------14---------14----12.--14~--------------
A----------------------------------------------14-----------------------
E-----------------------------------------------------------------------


e-----------------------------------------------------------------------
B----------------------------------15/17~-------------------------------
G-14(16)---(16)-(14)p12-14-p-12-----------------------------------------
D-------------------------------14--------------------------------------
A-----------------------------------------------------------------------
E-----------------------------------------------------------------------


e-17(19)---17(19)---17(19)(17)p15---------------------------------------
B---------------------------------17~-----------------------------------
G-----------------------------------------------------------------------
D-----------------------------------------------------------------------
A-----------------------------------------------------------------------
E-----------------------------------------------------------------------


e-----------------------------------------------------------------------
B-----------------------------------------------------------------------
G-14-12.--(16)-(14)p12--------------------------------------------------
D----------------------14~---------------12-----------------------------
A------------------------------------------12(14)-(12)p10-12(14)~-------
E-----------------------------------------------------------------------

20130713

PANNONIA ALLSTARS SKA ORCHESTRA NO LOVE IN TOWN TAB (SZÓLÓ)



PASO NO LOVE IN TOWN TAB


Szóló ~ 1:05

e-/5.---x-5---5-5-5----------------------------------------------5------
H-/5.---x-5---5-5-5-8p7p5-7-5-----------8-7.---5.---4.---5---\---4------
G---------------------------------8p7p5-8-7.---5.---4.---5---\----------
D-----------------------------------------------------------------------
A-----------------------------------------------------------------------
E-----------------------------------------------------------------------


e-/10.---x-10---10-10-10-------------------------/5.---x-5---5-5-5------
H-/10.---x-10---10-10-10-13-13-13----12-12-10.---/5.---x-5---5-5-5------
G------------------------13-13-13-12-12-12-10.--------------------------
D-----------------------------------------------------------------------
A-----------------------------------------------------------------------
E-----------------------------------------------------------------------


e-8p7p5---------------------12.---------12---------10-------10----------
H-------8p7p5-------7---/---15(17).-----15(17)-----13(15)---13(15).-----
G-------------8p7p5-----------------------------------------------------
D-----------------------------------------------------------------------
A-----------------------------------------------------------------------
E-----------------------------------------------------------------------


e-10-------10-10----------5-----5-5-5-------5------------12-------------
H-13(15)------13(15)------8(10)-----8(10)-----(10)---/---15(17)---------
G-----------------------------------------------------------------------
D-----------------------------------------------------------------------
A-----------------------------------------------------------------------
E-----------------------------------------------------------------------


Akkordmenet

  Am                             Dm               Am

e-5------------------------------5----------------5---------------------
H-5------------------------------6----------------5---------------------
G-5------------------------------7----------------5---------------------
D-7------------------------------7----------------7---------------------
A-7------------------------------5----------------7---------------------
E-5-----------------------------------------------5---------------------


  E7             Dm              Am

e----------------5---------------5--------------------------------------
H-5--------------6---------------5--------------------------------------
G-7--------------7---------------5--------------------------------------
D-6--------------7---------------7--------------------------------------
A-7--------------5---------------7--------------------------------------
E--------------------------------5--------------------------------------



20130610

PANNONIA ALLSTARS SKA ORCHESTRA BUDAPEST TAB



PASO BUDAPEST TAB

Intro / solo

e-----------------------------------------------------------------------
H--9-/-11-11~-----11~-----11~--------13p11------------------------------
G-10-/-12------12------12------------------12---------------------------
D---------------------------------------------13-------13/15\12~--------
A-----------------------------------------------------------------------
E-----------------------------------------------------------------------


e-----------------------------------------------------------------------
H--9-/-11-11~-----11~-----11~--------13p11------------------------------
G-10-/-12------12------12------------------12---------------------------
D---------------------------------------------13-------12--/-15~--------
A-----------------------------------------------------------------------
E-----------------------------------------------------------------------


Verse / solo akkordmenet

  Cm                            Eb               Gm

e-8----------------------------------------------10---------------------
H-8-----------------------------8----------------11---------------------
G-8-----------------------------8----------------12---------------------
D-10----------------------------8----------------12---------------------
A-10----------------------------6----------------10---------------------
E-8---------------------------------------------------------------------



... Budapest ....        de csodááás

  Fm                            Cm

e-8-----------------------------8---------------------------------------
H-9-----------------------------8---------------------------------------
G-10----------------------------8---------------------------------------
D-10----------------------------10--------------------------------------
A-8-----------------------------10--------------------------------------
E-------------------------------8---------------------------------------


  Fm                            Gm                          G7    

e-8-----------------------------10--------------------------------------
H-9-----------------------------11---------------------------8----------
G-10----------------------------12--------------------------10----------
D-10----------------------------12---------------------------9----------
A-8-----------------------------10--------------------------10----------
E-----------------------------------------------------------------------


Vége

  Cm                                                   G7

e-8---------------------------------------------------------------------
H-8-----------------------------------------------------8.----8.--------
G-8----------------------------------------------------10.---10.--------
D-10----------------------------------------------------9.----9.--------
A-10---------------------------------------------------10.---10.--------
E-8---------------------------------------------------------------------



20130115

TANKCSAPDA MAGZAT A MÉHBEN TAB (SZÓLÓ)


e-------------------------------------------------------------------
H-------------------------------------------------------------------
G-------5'---------5'--------------------5'---------5'--------------
D-5h7--------7p5-7------7p5-5------7p5-7------7p5-7------7p5-5------
A-------------------------------------------------------------------
E-------------------------------------------------------------------


e-------------------------------------------------------------------
H----------13'------------13'---------13----------------------------
G-14p12-14-------14p12-14-------14p12-------------------------------
D-------------------------------------------------------------------
A-------------------------------------------------------------------
E-------------------------------------------------------------------


e-------------------------------------------------------------------
H-15(17)------(17)(15)-13-15(17).---13------------------------------
G-------------------------------------------------------------------
D-------------------------------------------------------------------
A-------------------------------------------------------------------
E-------------------------------------------------------------------


e-------------------------------------------------------------------
H-15(17)------15(17).--15(17).--15(17)-(17)(15)p13------------------
G-------------------------------------------------------------------
D-------------------------------------------------------------------
A-------------------------------------------------------------------
E-------------------------------------------------------------------


e-------------------------------------------------------------------
H-------------------------------------------------------------------
G-5h7(9)------(9)(7)p5-----5'---------------------------------------
D----------------------7--------------------------------------------
A-------------------------------------------------------------------
E-------------------------------------------------------------------


e-8-------8-------8-------8-------8-------8-------------------------
H---6-6-6---6-6-6---6-6-6---6-6-6---6-6-6---6-6-6-------------------
G-------------------------------------------------5---7---5---7(9)--
D-------------------------------------------------------------------
A-------------------------------------------------------------------
E-------------------------------------------------------------------



20121121

DEÁK BILL ROSSZ VÉR TAB (SZÓLÓ)


Deák Bill Gyula - Rossz Vér gitár szóló tab az alábbi verzió alapján (3:03 - 4:06)


DEÁK BILL ROSSZ VÉR SZÓLÓ TAB

GP5 + GP6 + PDF >>

Szóló

e-----------------------------------------------------------------------
B-----------------------------------------------------------------------
G--------------------------------14(16)-14~~~---------------------------
D---------12-12-14~~~---------------------------------------------------
A------/14--------------------------------------------------------------
E-----------------------------------------------------------------------


e-----------------------------------------------------------------------
B------------------12-12-15~-----------15-15~---15p12-------------------
G------12-14(16)--------------------------------------14(16)-14~~~------
D---14------------------------------------------------------------------
A-----------------------------------------------------------------------
E-----------------------------------------------------------------------


e------12-12h14---------------------------------------------------------
B---12----------15~-----------12-15-15p12----------15-------------------
G----------------------------------------14(16)-12---14(16)-14~---------
D-----------------------------------------------------------------------
A-----------------------------------------------------------------------
E-----------------------------------------------------------------------


e-----------------------------------------------------------------------
B-----------------------------------------------------------------------
G---12h14p12-\11h12p11-\9h11p9-\7h9p7~~~--------------------------------
D-----------------------------------------------------------------------
A-----------------------------------------------------------------------
E-----------------------------------------------------------------------


e-----------------------------------------------------------------------
B-----------------------------------------------------------------------
G--------------------------------------------------12h14~~~-------------
D------7-9-9h10-9-7------------------------------12---------------------
A---10--------------10~------------------10-12/14-----------------------
E-----------------------------------10/12-------------------------------


e----12--------12-------------------------------------------------------
B--12--12-15-15---------------------------12-12-15-15(17)-15------------
G----------------(16)(14)-12h14-12-14(16)-------------------(16)(14)----
D-----------------------------------------------------------------------
A-----------------------------------------------------------------------
E-----------------------------------------------------------------------

Itt bevadul picit...
e------------------------------------------------------------12-15p12---
B---------------12-15-15(17)-15-12----------------------12-15--------15-
G-----12-14(16)-------------------(16)(14)p12--14--12h14----------------
D--14----------------------------------------14--14---------------------
A-----------------------------------------------------------------------
E-----------------------------------------------------------------------


e----12-----------------------------------------------------------------
B--12--15p12-------12-15------------------------------------------------
G-----------14(16)------(16)(14)p12-----12------------------------------
D----------------------------------14p12--14p12-----12------------------
A----------------------------------------------14-12--14p12-------------
E----------------------------------------------------------15-12\10-----


e-----------------------------------------------------------------------
B-----------------------------------------------------------------------
G-----------------12-------14p12-14~~~----------------------------------
D-------------12--------------------------------------------------------
A-----10-/14------------------------------------------------------------
E---12------------------------------------------------------------------


....aztán újra nyugi

e--15-17-17h19~--17h19~~~--------19p17p15-17~-----17h19-17~~~-----------
B-----------------------------------------------------------------------
G-----------------------------------------------------------------------
D-----------------------------------------------------------------------
A-----------------------------------------------------------------------
E-----------------------------------------------------------------------


e----12h14-14---------------------12-12---------------------------------
B--12--------15~--------12-15(17)-------15------------------------------
G-----------------------------------------14(16)---(14)p12--12h14~------
D---------------------------------------------------------14------------
A-----------------------------------------------------------------------
E-----------------------------------------------------------------------


e-----------------------------------------------------------------------
B-----------------------------------------------------------------------
G---12-14(16).----------------------------------------------------------
D-----------------------------------------------------------------------
A-----------------------------------------------------------------------
E-----------------------------------------------------------------------





20121115

REPUBLIC HA ITT LENNÉL VELEM TAB (SZÓLÓ)



e---------------------------------------------10.-------------------
H---------------------10-12(13)---12.--10.--------12.---12----------
G-7.--7~--\-----/11.------------------------11--------11---12\11-10.
D-------------------------------------------------------------------
A-------------------------------------------------------------------
E-------------------------------------------------------------------


e-------------------------------------------------------------------
H-------------------------------------------------------------------
G-9p7\6.-7p6----------------7---------------------------------------
D------------7-----7.---------9.---9-7/9-7~-------------------------
A--------------9.------10\9-----------------9-7h8p7\5-7-7(8)(7)p5.--
E-------------------------------------------------------------------


e------------------------------7.-----------------------------------
H---------7-8p7-10.---(12)(10)------10------------------------------
G-9(11)-------------------------------------------------------------
D-------------------------------------------------------------------
A-------------------------------------------------------------------
E-------------------------------------------------------------------


e-10.--10p9------7.------------------------------10-----------------
H-----------10.-----10p7-----------------------10---12.--10~--------
G------------------------10p9p7---9---7h9h10/11---------------------
D-------------------------------9---9-------------------------------
A-------------------------------------------------------------------
E-------------------------------------------------------------------


e-------------------------------------------------------------------
H-8-10-10------10------10-------------------------------------------
G------9(11).--9(11).--9(11)-9-7.-----------------------------------
D-----------------------------------9.-7.---------------------------
A-----------------------------------------9\7--5-7(8).-7.-5---5~----
E-----------------------------------------------------------7----7\-


e----------------17.-------------------14-17.-16.-15p14--14-------14
H----15.-17(19).----(19)(17)p15---15-17----------------17-------15--
G-/16---------------------------16-------------------------14-16----
D-------------------------------------------------------------------
A-------------------------------------------------------------------
E-------------------------------------------------------------------


e--------14---------------------------------------------------------
H------15-----------------------------------------------------------
G-14-16-------------------------------------------------------------
D-------------------------------------------------------------------
A-------------------------------------------------------------------
E-------------------------------------------------------------------



20121113

ZÖLD A BÍBOR ÉS A FEKETE TAB


Intro

e-----2-------------2-------------3-------------3-------------------
B-------2-------------2-------------3-------------3-----------------
G-------------------------------------------------------------------
D---4-------------4-----------------------------------------  2x  --
A-2-------------2---------------2-------------2---------------------
E-----------------------------3-------------3-----------------------


Verse

e-----2-------------2-----------3---------0-------2-----------------
B-------2-------------2-----------3---------2-------2---------------
G-------------------------------------------------------------------
D---4-------------4---------------------2-------4-----------  4x  --
A-2-------------2---------------------0-------2---------------------
E-----------------------------3-------------------------------------


Bridge

e-------------------------------------------------------------------
B-------------------------------------------------------------------
G-------------------------------------------------------------------
D-----------7.----------------------------------------------  4x  --
A-9-7-9.----5.--4-5.--5-7-------------------------------------------
E-7-5-7.--------2-3.--3-5-------------------------------------------


Refr

e-------------------------------------------------------------------
B-------------------------------------------------------------------
G-------------------------------------------------------------------
D-7-----------------------------------------------7-----------------
A-5-------5-------9-----7---------9-7-9.----5.--5-5-----7-----------
E---------3-------7-----5---------7-5-7.----3.--3-------5-----------


e-------------------------------------------------------------------
B-------------------------------------------------------------------
G-------------------------------------------------------------------
D-7-----------------------------------------------------------------
A-5-------5-------9-------7-------5-5-5-5-5-5-5-5-7-7-7-7-7-7-7-7---
E---------3-------7-------5-------3-3-3-3-3-3-3-3-5-5-5-5-5-5-5-5---


Solo 1

e-------------------------------------------------------------------
B---7~~~~--\--------------------------------------------------------
G------------------9(11)(9)p7---9---(11).---------------------------
D----------------------------9--------------------------------------
A-------------------------------------------------------------------
E-------------------------------------------------------------------


e---------10-9------------------------------------------------------
B------12--------10---12~~~---\-------------------------------------
G---11--------------------------------------------------------------
D-------------------------------------------------------------------
A-------------------------------------------------------------------
E-------------------------------------------------------------------


e-------------------------------------------------------------------
B---10---------------------------7.---------------------------------
G---9---(11).-----7'-------------7.---------------------------------
D----------------------9---9p7-------9~-----------------------------
A-----------------------------9-------------------------------------
E-------------------------------------------------------------------


e-------------------------------------------------------------------
B----------------------7-----------7.-------------------------------
G---9(11)---9~---7h9p7-7--9-9p7--------9~---------------------------
D---------------------9---------9-----------------------------------
A-------------------------------------------------------------------
E-------------------------------------------------------------------


e-------------------------------------------------------------------
B-------------------------------------------------------------------
G---7---(9).--------------------------------------------------------
D-------------------------------------------------------------------
A-------------------------------------------------------------------
E-------------------------------------------------------------------


SZÓLÓ 1 + SZÓLÓ 2 GP6 + PDF >>


20121108

BIKINI ADJ HELYET MAGAD MELLETT TAB (SZÓLÓ)


e-------------------------------------------------------------------
H-------------------------------------------------------------------
G-2-4-4/5~---5-4-2---/11~--------11-11-10~-------10(12)---10-9~-----
D-------------------------------------------------------------------
A-------------------------------------------------------------------
E-------------------------------------------------------------------


e---------------8-7-------------------------------------------------
H----------10-8-----8-----------------------------------------------
G------9-7------------7~---------/4---4-4---4/5---4-2---------------
D-10-7--------------------------------------------------------------
A-------------------------------------------------------------------
E-------------------------------------------------------------------


e-------------------------------------------------------------------
H-------------------------------------------------------------------
G-/9~-------7---5-5/7~----------7-7~----7h9-------------------------
D---------------------------------------------10-9-7~---------------
A-------------------------------------------------------------------
E-------------------------------------------------------------------


e-------------------------------------------------------------------
H-------------------------------------------------------------------
G-2-4-4/5~---5-4-2---/4---0---<5>---<12>---/4---4-4---4/5---4-2~----
D-------------------------------------------------------------------
A-------------------------------------------------------------------
E-------------------------------------------------------------------



20121106

EDDA ELHAGYOM A VÁROST TAB (SZÓLÓ)



e-------------------------------------------------------------------
H-------------------------------------------------------------------
G-2(3)(2)-0----------------0-2(3)(2)-0------------------------------
D----------3/5~-----------------------3/5~--------------------------
A-------------------------------------------------------------------
E-------------------------------------------------------------------


e-------------------------------------------------------------------
H-------------------------------------------------------------------
G-0.-3.-5(7).-5.-3(5)(3)(5)(3)(5)(3)~~------------------------------
D-------------------------------------------------------------------
A-------------------------------------------------------------------
E-------------------------------------------------------------------


e-------------------------------------------------------------------
H-----------3''''(5)~~-----------------5'''(7)~--5(7)-5(7)~~----/---
G-2(3)(2)-0----------------0-2(3)(2)-0------------------------------
D-------------------------------------------------------------------
A-------------------------------------------------------------------
E-------------------------------------------------------------------


e---------10---------------------------------8----------------------
H-10''(12)---(12)(10)-8.--10.-8-8-8~--\-----------------------------
G------------------------------9-9--------/9--9~--------------------
D-------------------------------------------------------------------
A-------------------------------------------------------------------
E-------------------------------------------------------------------


e------------6------------------------------------------------------
H---4.-(8)(6)--(8)(6)-4---------------------------/3----------------
G-5.-----------------------------2(3)(2)-0-2-----0--4~---2.-0~------
D--------------------------------------------2-0--------------------
A-------------------------------------------------------------------
E-------------------------------------------------------------------



fillek
       0:50                                        0:57
e---------------------------10--------------------------------------
H---(12)\(10)-10.-8.--10(12)----------------(17)(15)-12-------------
G-------------------------------------------------------14(16)-14~--
D-------------------------------------------------------------------
A-------------------------------------------------------------------
E-------------------------------------------------------------------

        1:04                         1:49                    
e-10----------------------------------------------------------------
H---(12)(10)-8~-----------------------------------------------------
G-------------------------------(16)(14)-12.-12~--------------------
D-------------------------------------------------------------------
A-------------------------------------------------------------------
E-------------------------------------------------------------------


      1:54
e-------------------------------------------------------------------
H-------------------------------------------------------------------
G-(7)(5)p3.-5.-3.-5'''(7)~~-----------------------------------------
D-------------------------------------------------------------------
A-------------------------------------------------------------------
E-------------------------------------------------------------------



      2:01                                  2:15               
e--------------10---------------------------------------------------
H-----8--10(12)--(12)(10)-8-8~--------------------------------------
G-7h9----------------------9--------------3-------------------------
D------------------------------------------5~-----------------------
A-------------------------------------------------------------------
E-------------------------------------------------------------------


      2:23                                     2:28
e-------------------------------------------------------------------
H-----------------------------------15-12---------------------------
G-(7)(5)-3-5'''(7)------------------------14(16)(14)-12.-12~--------
D-------------------------------------------------------------------
A-------------------------------------------------------------------
E-------------------------------------------------------------------