A következő címkéjű bejegyzések mutatása: tab. Összes bejegyzés megjelenítése
A következő címkéjű bejegyzések mutatása: tab. Összes bejegyzés megjelenítése

20170315

OSSIAN EGYEK VAGYUNK TAB (INTRO SOLO)

Ossian - Egyek Vagyunk intro szóló + ritmus gitár (0:00 - 0:30)


OSSIAN EGYEK VAGYUNK INTRO SZÓLÓ TAB

GP5 + GP6 + PDF >>

eb----------------------------------------------------------------------
Bb---8(10)~-----------8-6-8-\-------------------------------------------
Gb----------------------------5~-----------/10p9-10~--------------------
Db----------------------------------------------------------------------
Ab----------------------------------------------------------------------
Eb----------------------------------------------------------------------


eb----------------------------------------------------------------------
Bb----------------------------------------------------6-5-8-------------
Gb---9-7-9-10---------------------------------------7-------------------
Db------------7\5/7~-------8p7-8~-----------------7---------------------
Ab------------------------------------------5-7-8-----------------------
Eb----------------------------------------------------------------------
                                            x x x x x

eb----------------------------------------------------------------------
Bb---8(10)~-----------8-6-8.--13~-------\-------------------------------
Gb-----------------------------------------/10p9-10~--------------------
Db----------------------------------------------------------------------
Ab----------------------------------------------------------------------
Eb----------------------------------------------------------------------


20160915

PÁL UTCAI FIÚK CSAK ÚGY CSINÁL TAB (INTRO)

Pál Utcai Fiúk - Csak Úgy Csinál - rövid akusztikus gitár szóló az elején.



PÁL UTCAI FIÚK CSAK ÚGY CSINÁL TAB (INTRO)

PDF >>

Intro

   Aadd9                            A
e--(0)------------------------------------------------------------------
B--(0)------------------5-----------------------------------------------
G--(2)--------------4/6---6p4----4-4/6----------------------------------
D--(2)-----------------------7------------------------------------------
A--(0)-------------------------7----------------------------------------
E-----------------------------------------------------------------------

                     Dadd9
e-----------------------------------------------------------------------
B------5/7-5------------------------------------------------------------
G--------------6---6-7--------------------------------------------------
D----------------7------------------------------------------------------
A-----------------------------------------------------------------------
E-----------------------------------------------------------------------

                     A
e----------------7-9----------------------------------------------------
B---------7-9-10-----10-------------------------------------------------
G-----7/9---------------------------------------------------------------
D-----------------------------------------------------------------------
A-----------------------------------------------------------------------
E-----------------------------------------------------------------------



20160212

HOLDVIOLA LÁTOD ÉDESANYÁM TAB

Holdviola - Látod Édesanyám egy szál gitár kíséretében.



HOLDVIOLA LÁTOD ÉDESANYÁM TAB


Intro

e-----------------------------------------------------------------------
B---------3-----------0---------3p2-----------0-------------------------
G-------4---4-------4---4-------------4-----4---4-----------------------
D-----4---------0h2-------2---4-----4-----2-------0---------------------
A---2---------4-------------0-----------0-------------------------------
E-----------------------------------------------------------------------


e-----------------------------------------------------------------------
B-----------------------------------------------------------------------
G---2-----0-----------0-----4---------4-3-------------------------------
D-------4---4---2---4---4-0-----4---4-----------------------------------
A-----2-------2---2-----------------------------------------------------
E---3-----------0-----------2-----2-------------------------------------


Látod Édesanyám ...

e-----------------------------------------------------------------------
B---------3-----------0---------3p2-----------0-------------------------
G-------4---4-------4---4-------------4-----4---4-----------------------
D-----4---------0h2-------2---4-----4-----2-------0---------------------
A---2---------4-------------0-----------0-------------------------------
E-----------------------------------------------------------------------


20150721

ÉN MEG AZ ÉNEK ENGEM NEM LEHET ELFELEJTENI TAB (SZENES - NÁDAS)

Engem nem lehet elfelejteni ...  
Bérczesi Róbert egy szál gitárral és egy régi Szenes-Nádas dal.


BÉRCZESI RÓBERT ENGEM NEM LEHET ELFELEJTENI TAB


Akkordok

    G      H7     Em     G7     C      C7     E7     A7     D7     G7'

e---3------2------0------1------0------0------0------0------2-----------
B---0------4------0------0------1------1------3------2------1-----------
G---0------2------0------0------0------3------1------0------2-----------
D---0------4------2------0------2------2------2------2------0------3----
A---2------2------2------2------3------3------2------0-------------2----
E---3-------------0------3--------------------0--------------------3----


    Am    Fmaj7    D#    G(add6)

e---0------0-------3------0---------------------------------------------
B---1------1-------4------3---------------------------------------------
G---2------2-------3------0---------------------------------------------
D---2------3-------5------0---------------------------------------------
A---0------3-------6------2---------------------------------------------
E----------x--------------3---------------------------------------------

       G             H7
Engem nem lehet elfelejteni,

       Em             G7
Értem könnyeket illik ejteni,

      C          C7
Lehet így, lehet úgy,

       G             E7
De ha nincs is közös út,

   A7                    D7
Az ábrándjaidban ott leszek ugyanúgy.


ÉN MEG AZ ÉNEK VÁRJ MÍG FELKEL MAJD A NAP TAB (LERCH ISTVÁN)

Várj míg felkel majd a nap 30 másodpercben, Bérczesi Róbert előadásában.



ÉN MEG AZ ÉNEK VÁRJ MÍG FELKEL MAJD A NAP TAB


    Em              D       C       G       G       A
e---3---------------2-------0-------------------------------------------
B-----------0-------------------------------0-------2-------------------
G-------0-------0-------2-------0---0-----------0-------2---------------
D-------------------0-------------------0-------------------------------
A---------------------------3---------------2-------0-------------------
E---0-------------------------------3-----------------------------------

    D
e---------------------------3p2p0---2-----------------------------------
B---3---------------3-------------------3-------------------------------
G-------2-------2-------2-------------------2---------------------------
D---0-------0-----------------------------------0-----------------------
A-----------------------------------------------------------------------
E-----------------------------------------------------------------------

    Em                      D       C       G       G       A
e---3---------------3-------2-------0-----------------------------------
B-----------0---------------------------------------0-------2-----------
G-------0-------0-------0-------2-------0---0-----------0-------2-------
D---------------------------0-------------------0-----------------------
A-----------------------------------3---------------2-------0-----------
E---0---------------------------------------3---------------------------



20150512

SZEKERES ADRIENN OLYAN, MINT TE TAB (MÓKOS JÁNOS GUITAR COVER)

Mókos János instrumentális videója Szekeres Adrienn - Olyan, mint Te című dala alapján.


SZEKERES ADRIENN OLYAN, MINT TE INSTRUMENTÁLIS TAB

Part 1

e-----------------------------------------------------------------------
B----------------------10.----------------------------------------------
G-------------9.--10--------12~----------10.--9~------------9-----------
D--------12---------------------------------------12.--11-----12~--\----
A---12------------------------------------------------------------------
E-----------------------------------------------------------------------


e-----------------------------------------------------------------------
B-----------------------10.--11~-------------------------11-----10~-----
G--------------9.--10-----------------------------------------12--------
D---------12------------------------------12.--10---10.-----------------
A---/12-----------------------------------------------------------------
E-----------------------------------------------------------------------


e-----------------------------------------------------------------------
B-----10---10.--10--h11p10----------------------------------------------
G------------------------------12~--------------------------------------
D---10------------------------------------------------------------------
A-----------------------------------------------------------------------
E-----------------------------------------------------------------------

20141101

KESH MIZU INTRO TAB (MR2 AKUSZTIK)

Remek akusztikus gitár intro 0:00 - 0:24 között. "Elkövető": Öllős Dávid.


KESH MIZU INTRO TAB


e-----------------------------------------------------------------------
B-------6---------------8-------7-------6-----6-----5-------------------
G-----6-----6---------7-------7-------6-------6-----5-------------------
D---5---------------8-------6-------5---------5-----3-------------------
A-6---------------7-----------------------6-----5-----------------------
E-------------------------6-------5-------------------------------------


e---3-----3-------------------------------------------------------------
B-----5-----5-----------------------------------------------------------
G-------------5---------------------------------------------------------
D-----------------------------------------------------------------------
A-5-----5---------------------------------------------------------------
E-----------------------------------------------------------------------


e-----------------------------------------------------------------------
B-----5---3h5.--------5---3h5.--------6---5h6.----8---6---5---6---------
G---------------------------------------------------------5---6---------
D-----3---------------5---------------7-----------7---7-----------------
A-5-----5-----x-3-------3-----------------------------------------------
E-----------------------------x-6-------6-----x-6-6---6---5---5---------


e-----------------------------------------------------------------------
B-----5---3h5.--------5---3h5.--------6---5h6.----8-8-6-6-5---6---------
G---------------------------------------------------------5---6---------
D-----3---------------5---------------7-----------7-7-7-7---------------
A-5-----5-----x-3-------3-----------------------------------------------
E-----------------------------x-6-------6-----x-6-6-6-6-6-5---5---------



QUIMBY SENKI SE MENEKÜL TAB (SZÓLÓ)

Standard hangolás, Capo a 2. bundon és egy brilliáns Kiss Tibor szóló 3:04 körül.



QUIMBY SENKI SE MENEKÜL SZÓLÓ TAB


e---9-7.----------------------------------------------------------------
B--7------7~------6h7-6--------------------7.--7.--7\6/7\6--/7.---------
G-7---------------------9-7-6--------------7.--7.--7\6/7\6--/7.---------
D-----------------------------9.----------------------------------------
A-----------------------------------------------------------------------
E-----------------------------------------------------------------------


e-2---3-2---------2-------------------2---------------------------------
B-----------5---------------2-------------------------------------------
G---------------------3-----------3-------------------------------------
D-----------------------------------------------------------------------
A-----------------------------------------------------------------------
E-----------------------------------------------------------------------


e-------2---------------2----------------2---------5-2------------------
B-----2-----2---------------2-------------------------------------------
G-2h4---------4---2h4---------2---/7-----------7---------6-----7--------
D-----------------------------------------------------------------------
A-----------------------------------------------------------------------
E-----------------------------------------------------------------------

20140811

HONEYBEAST A LEGNAGYOBB HŐS TAB



HONEYBEAST A LEGNAGYOBB HŐS TAB


Akkordok

  Bbm    F/A   C#maj7  F#maj7    G#6      G#     C'fsz'  F7    G'sz'
e--1------1-----(4)----(1)--------4-------4--------------1--------------
H--2------1------6------2---------6-------4-------4------1------2-------
G--3------2------5------3---------5-------5-------3------2------3-------
D--3------3------6------3---------6-------6-------4------1------2-------
A--1------0------4------x---------x-------6-------3------3------x-------
E-----------------------2---------4-------4--------------1------3-------

  F#m     C#m    E         G#sus4  G#?
e--2------4------0-----------4------4-----------------------------------
H--2------5------0-----------4------4-----------------------------------
G--2------6------1-----------6------7-----------------------------------
D--4------6------2-----------x------x-----------------------------------
A--4------4------2-----------6------6-----------------------------------
E--2-------------0-----------4------4-----------------------------------



Bbm
A jó híremen nem eshet csorba,

F/A
Beállok én is a tornasorba.

C#maj7
Hiszem, hogy két paralel történet

F#maj7
A végtelenben összeérhet.

20140804

EDDA ÁLOM TAB



EDDA ÁLOM TAB


#1

e-----------------------------------------------------------------------
B-----------------------------------------------------------------------
G-------5.----5.--------3---3.------------5.----5.--------3---3.--------
D---------------------5---5-----------------------------5---5-----------
A-3.--------------------------------3.----------------------------------
E-----------------------------------------------------------------------


e-----------------------------------------------------------------------
B-----------------------------------------------------------------------
G-------5.----5.--------3---3.------------5.----5.--------3---3.--------
D---------------------5---5-----------------------------5---5-----------
A-3.--------------------------------3.----------------------------------
E-----------------------------------------------------------------------


#2

e-----------------------------------------------------------------------
B-----------------------------------------------------------------------
G-----------------------------------------------------------------------
D-5.----5.----5---\-----------------5.----5.----5---\-------------------
A-3.----3.----3---\-----1---1.------3.----3.----3---\-----1---1.--------
E---------------------3---3-----------------------------3---3-----------

20140710

MAJKA CURTIS BLR BELEHALOK TAB

A stúdió verzió első felében a #1 riff, a második felében inkább a #2 szól.
Capo a 4. bundon.

MAJKA CURTIS BLR BELEHALOK TAB

#1

e---------5-------4-----------------------5-----------9---10---9--------
B-------------------------------------------------7/9-------------------
G-----6-------6-------6---4---6-------6-------6-------------------------
D-4-------------------------------4-------------------------------------
A-----------------------------------------------------------------------
E-----------------------------------------------------------------------


e-----------------------------------------------------------------------
B---------9-------9------------------------10---------------------------
G-------------------------6--------------------------4------------------
D-----9-------9-------9-------9-------9/11------11-------7-p-6-h-7------
A-4-------------------------------4-------------------------------------
E-----------------------------------------------------------------------


#2

e---------5-------4-----------------------5-------4-------10---9--------
B-----------------------------------------------------------------------
G-----6-------6-------6---4---6-------6-------6-------6-----------------
D-4-------------------------------4-------------------------------------
A-----------------------------------------------------------------------
E-----------------------------------------------------------------------


e-----------------------------------------------------------------------
B---------9-------9----------------------10-----------------------------
G-------------------------6------------------------4--------------------
D-----9-------9-------9-------9-------11------11-------7-p-6-h-7--------
A-4-------------------------------4-------------------------------------
E-----------------------------------------------------------------------


20140707

CSÍK ZENEKAR FERENCZI GYÖRGY EZ A VONAT HA ELINDULT TAB (EGER - 2009)

Csík Zenekar és Ferenczi György - Ez a vonat ha elindult ...
A tab az 1:00-nál kezdődő verse rész alapján készült, nagyjából ez a kör megy végig.


EZ A VONAT HA ELINDULT TAB


e-----------------------------------------------------------------------
B---------------------------------------6-------4-----------------------
G-----3-----3-----3-----3-----3-----3---5------4------------------------
D---3-----3-----3-----3-----5-----5-----6-----3-------------------------
A-------------------5-----6-----7-----5---------------------------------
E-3-----5-----6---------------------------4-3---------------------------


e---------------------1-------------------------------------------------
B---------------4-----1-------6-----6-----6-5----4----------------------
G-----3-----3---5-----2-------7-----5-----5-5---5-----------------------
D---5-----5-----5-------------7-----5-----4-4--4------------------------
A-3-------------------------------6---6-5-----5-------------------------
E-------6-----5---5-1---1-/-6---6---------------------------------------


e-----------------------------------------------------------------------
B---------------3-----4-----------------------4-------------------------
G-----3-----3---3-----3---5.--5---------3-----4-------------------------
D---3-----3-----5-----5---5.--4---------3-----3-------------------------
A-------------6---6-3---3---------------------4-------------------------
E-3-----1-----------------5.--4---------3-------------------------------


e-----------------------------------------------------------------------
B---------4-----6-5----4--------------------------7---------------------
G-----3---5-----5-5---5-----------3-----3-3.------7---------------------
D---5-----5-----4-4--4----------3-----3---3.------8---------------------
A-3-----------5-----5-----------------------------9---------------------
E-------5---5-----------------3-----5-----3.----------------------------



20140412

BYEALEX AZ ÉN RÓZSÁM TAB

A billentyű és a hegedű szólam gitáron ...



BYEALEX AZ ÉN RÓZSÁM TAB

(6/8) Capo on the 2nd

e-------0-----------------------0---------------------------------------
H-------1-----------------------1---------------------------------------
G-------2-----------------------0---------------------------------------
D-------2-----------------------2---------------------------------------
A-0-----------------------3---------------------------------------------
E-----------------------------------------------------------------------


e-------------------------------0---------------------------------------
H-------3-----------------------1---------------------------------------
G-------0-----------------------2---------------------------------------
D-------0-----------------------2---------------------------------------
A-------2-----------------0---------------------------------------------
E-3---------------------------------------------------------------------


Gyors rész (zongora)

e-----------0-5-7-8-7-5-0---------------8-10-12-10-8--------------------
H-------0-1---------------------------8--------------8------------------
G-----2-----------------------------9-----------------------------------
D---2-------------------------10-12-------------------------------------
A-0-------------------------10------------------------------------------
E-------------------------8---------------------------------------------

20140408

MOJO WORKINGS CUP OF TEA TAB

Mojo Workings - Cup Of Tea akkordmenet


MOJO WORKINGS CUP OF TEA TAB


  E     F#7     A      G     Cadd9  C#m     B     E add9
e-0------2------0------3------0------4-------------0--------------------
B-0------2------2------3------3------5------4------0--------------------
G-1------3------2------0------0------6------4------1--------------------
D-2------2------2------0------2------6------4------4--------------------
A-2------4------0------2------3------4------2------2--------------------
E-0------2-------------3---------------------------0--------------------



Intro

E / F#7 / A / E /
E / F#7 / A / E /


Verse 1

E / F#7 / A / E /
E / F#7 / A / E /

G / Cadd9 / G / Cadd9 /
G / Cadd9 / G / A /


Verse 2

E / F#7 / A / E /
E / F#7 / A / E /
A / E / C#m A / E /
A / E / C#m A / E /

G / Cadd9 / G / Cadd9 /
G / Cadd9 / G / A / E /

20140331

HORVÁTH CHARLIE MINDENKI VALAKIÉ TAB (SZÓLÓ)



e-----------------------------------------------------------------------
B-----------------------------------------------------------------------
G-14(16)---14(16)(14)p12-14-p-12----12.--12-----------------------------
D--------------------------------14---------14----12.--14~--------------
A----------------------------------------------14-----------------------
E-----------------------------------------------------------------------


e-----------------------------------------------------------------------
B----------------------------------15/17~-------------------------------
G-14(16)---(16)-(14)p12-14-p-12-----------------------------------------
D-------------------------------14--------------------------------------
A-----------------------------------------------------------------------
E-----------------------------------------------------------------------


e-17(19)---17(19)---17(19)(17)p15---------------------------------------
B---------------------------------17~-----------------------------------
G-----------------------------------------------------------------------
D-----------------------------------------------------------------------
A-----------------------------------------------------------------------
E-----------------------------------------------------------------------


e-----------------------------------------------------------------------
B-----------------------------------------------------------------------
G-14-12.--(16)-(14)p12--------------------------------------------------
D----------------------14~---------------12-----------------------------
A------------------------------------------12(14)-(12)p10-12(14)~-------
E-----------------------------------------------------------------------

20130713

PANNONIA ALLSTARS SKA ORCHESTRA NO LOVE IN TOWN TAB (SZÓLÓ)



PASO NO LOVE IN TOWN TAB


Szóló ~ 1:05

e-/5.---x-5---5-5-5----------------------------------------------5------
H-/5.---x-5---5-5-5-8p7p5-7-5-----------8-7.---5.---4.---5---\---4------
G---------------------------------8p7p5-8-7.---5.---4.---5---\----------
D-----------------------------------------------------------------------
A-----------------------------------------------------------------------
E-----------------------------------------------------------------------


e-/10.---x-10---10-10-10-------------------------/5.---x-5---5-5-5------
H-/10.---x-10---10-10-10-13-13-13----12-12-10.---/5.---x-5---5-5-5------
G------------------------13-13-13-12-12-12-10.--------------------------
D-----------------------------------------------------------------------
A-----------------------------------------------------------------------
E-----------------------------------------------------------------------


e-8p7p5---------------------12.---------12---------10-------10----------
H-------8p7p5-------7---/---15(17).-----15(17)-----13(15)---13(15).-----
G-------------8p7p5-----------------------------------------------------
D-----------------------------------------------------------------------
A-----------------------------------------------------------------------
E-----------------------------------------------------------------------


e-10-------10-10----------5-----5-5-5-------5------------12-------------
H-13(15)------13(15)------8(10)-----8(10)-----(10)---/---15(17)---------
G-----------------------------------------------------------------------
D-----------------------------------------------------------------------
A-----------------------------------------------------------------------
E-----------------------------------------------------------------------


Akkordmenet

  Am                             Dm               Am

e-5------------------------------5----------------5---------------------
H-5------------------------------6----------------5---------------------
G-5------------------------------7----------------5---------------------
D-7------------------------------7----------------7---------------------
A-7------------------------------5----------------7---------------------
E-5-----------------------------------------------5---------------------


  E7             Dm              Am

e----------------5---------------5--------------------------------------
H-5--------------6---------------5--------------------------------------
G-7--------------7---------------5--------------------------------------
D-6--------------7---------------7--------------------------------------
A-7--------------5---------------7--------------------------------------
E--------------------------------5--------------------------------------



20130621

ROAD VILÁGCSAVARGÓ TAB


Tuning: DGCFAd   !!!


 "F"     "Am"    "G"             "C"    "C/H"    "E7"
d-1-------0-------3---------------0-------0-------0---------------------
A-1-------1-------3---------------1-------1-------3---------------------
F-2-------2-------0---------------0-------0-------1---------------------
C-3-------2-------0---------------2-------0-------2---------------------
G-3-------0-------2---------------3-------2-------2---------------------
D-1---------------3-------------------------------0---------------------



Intro

c / G / Am / Am /
c / G / Am / Am /


Verse 1

c / G / Am / Am /
c / G / Am / Am /
c / G / Am / Am /
c / G / Am / G / Am / Am /

20130610

PANNONIA ALLSTARS SKA ORCHESTRA BUDAPEST TAB



PASO BUDAPEST TAB

Intro / solo

e-----------------------------------------------------------------------
H--9-/-11-11~-----11~-----11~--------13p11------------------------------
G-10-/-12------12------12------------------12---------------------------
D---------------------------------------------13-------13/15\12~--------
A-----------------------------------------------------------------------
E-----------------------------------------------------------------------


e-----------------------------------------------------------------------
H--9-/-11-11~-----11~-----11~--------13p11------------------------------
G-10-/-12------12------12------------------12---------------------------
D---------------------------------------------13-------12--/-15~--------
A-----------------------------------------------------------------------
E-----------------------------------------------------------------------


Verse / solo akkordmenet

  Cm                            Eb               Gm

e-8----------------------------------------------10---------------------
H-8-----------------------------8----------------11---------------------
G-8-----------------------------8----------------12---------------------
D-10----------------------------8----------------12---------------------
A-10----------------------------6----------------10---------------------
E-8---------------------------------------------------------------------



... Budapest ....        de csodááás

  Fm                            Cm

e-8-----------------------------8---------------------------------------
H-9-----------------------------8---------------------------------------
G-10----------------------------8---------------------------------------
D-10----------------------------10--------------------------------------
A-8-----------------------------10--------------------------------------
E-------------------------------8---------------------------------------


  Fm                            Gm                          G7    

e-8-----------------------------10--------------------------------------
H-9-----------------------------11---------------------------8----------
G-10----------------------------12--------------------------10----------
D-10----------------------------12---------------------------9----------
A-8-----------------------------10--------------------------10----------
E-----------------------------------------------------------------------


Vége

  Cm                                                   G7

e-8---------------------------------------------------------------------
H-8-----------------------------------------------------8.----8.--------
G-8----------------------------------------------------10.---10.--------
D-10----------------------------------------------------9.----9.--------
A-10---------------------------------------------------10.---10.--------
E-8---------------------------------------------------------------------



20130517

KIMNOWAK GYÉMÁNT TAB (INTRO)



KIMNOWAK GYÉMÁNT TAB

Intro

e-----------------------------------------------------------------------
H------------1------3-3-------------------------------------------------
G------------2------2-0----------0-0------------------------------------
D------------2------2-0------0h2----------------------------------------
A-----0------0--------x-------------------------------------------------
E-3-------------------3-------------------------------------------------


e-----------------------------------------------------------------------
H--------1-3------3-3---------------------------------------------------
G--------2-2------2-0-----------0---------------------------------------
D--------2-2------2-0-------0h2-----------------------------------------
A-0------0----------x---------------------------------------------------
E-------------------3---------------------------------------------------


e-----------------------------------------------------------------------
H--------1------3-3---3-------------------------------------------------
G--------2------2-0---0-----0---0---------------------------------------
D--------2------2-0---0---0---0-----------------------------------------
A-0------0--------x---x-------------------------------------------------
E-----------------3---3-------------------------------------------------


e-----------------------------------------------------------------------
H--------1-----------0-0------------------------------------------------
G--------2-----------0-0------------------------------------------------
D--------3-----------0-0------------------------------------------------
A-----------------------------------------------------------------------
E-1----------1-1-3-------5/7---3----------------------------------------


Refr akkordok

  C         G         Am        F

e-0---------3---------0---------1---------------------------------------
H-1---------3---------1---------1---------------------------------------
G-0---------0---------2---------2---------------------------------------
D-2---------0---------2---------3---------------------------------------
A-3---------2---------0---------3---------------------------------------
E-----------3-------------------1---------------------------------------



DEÁK BILL GYULA KÉNE EGY ÜVEG BOR TAB (MAIN RIFF)


Main riff

e-----------------------------------------------------------------------
H-5h6-----6.--x-x-5---5-5-----------------------------------------------
G-5-------5.--x-x-5---5-5-5h7p5---5-------------------------------------
D-5h7-----7.--x-x-5---5-5-5-----7---------------------------------------
A-5-------5.--x-x-5h7-7-7-----------------------------------------------
E-----------------5-----------------------------------------------------


e-----------------------------------------------------------------------
H-3-------3.--x-x-5---5-5-----------------------------------------------
G-3-------3.--x-x-5---5-5-5h7p5---5-------------------------------------
D-3-------3.--x-x-5---5-5-5-----7---------------------------------------
A-3h5-----5.--x-x-5h7-7-7-----------------------------------------------
E-3-------3.------5-----------------------------------------------------