20120917

REPUBLIC - NEKED KÖNNYŰ LEHET TAB (SZÓLÓ)



e---------------------------------------------8---11---8------------
H----------------9------9------9---------9h11--------------11-------
G-8-------8-10-------10-----10--------------------------------------
D-------------------------------------------------------------------
A-------------------------------------------------------------------
E-------------------------------------------------------------------


e-----------------------------------11--------11--------11--------11
H-9(11)(9)-------------------11(13)----11(13)----11(13)----11(13)---
G----------10-8(10)(8)~~--------------------------------------------
D-------------------------------------------------------------------
A-------------------------------------------------------------------
E-------------------------------------------------------------------


e--------11---------------------------------------------------------
H-11(13)----(13)(11)-9-11----9---11-9-9~----------------------------
G-------------------------10----------------------------------------
D-------------------------------------------------------------------
A-------------------------------------------------------------------
E-------------------------------------------------------------------


e-11~-------11-13/16-16~--------16-13-11-16----11-------------------
H-------------------------------------------13----13(14)(13)--------
G-------------------------------------------------------------------
D-------------------------------------------------------------------
A-------------------------------------------------------------------
E-------------------------------------------------------------------


e-------------------------------------------------------------------
H-------------------------------------------------------------------
G-13(15)(13)--------------------------------------------------------
D------------13(15)(13)~~-------------------------------------------
A-------------------------------------------------------------------
E-------------------------------------------------------------------


e-16p13p11-16p13p11-16p13p11--16p13p11-16p13p11-16p13p11------------
H-------------------------------------------------------------------
G-------------------------------------------------------------------
D-------------------------------------------------------------------
A-------------------------------------------------------------------
E-------------------------------------------------------------------


e-16p13p11-16p13p11-16p13p11--16p13p11-16p13p11-16p13p11------------
H-------------------------------------------------------------------
G-------------------------------------------------------------------
D-------------------------------------------------------------------
A-------------------------------------------------------------------
E-------------------------------------------------------------------


e-16p13p11-16p13p11-16p13p11--16p13p11-16p13p11-16p13p11------------
H-------------------------------------------------------------------
G-------------------------------------------------------------------
D-------------------------------------------------------------------
A-------------------------------------------------------------------
E-------------------------------------------------------------------


e-16p13p11-16p13p11-16p13p11--16p13p11-16p13p11-16p13p11------------
H-------------------------------------------------------------------
G-------------------------------------------------------------------
D-------------------------------------------------------------------
A-------------------------------------------------------------------
E-------------------------------------------------------------------


e-16---13-----------------------------------------------------------
H-----------16---13-------------------------------------------------
G---------------------15(17)---15(17)---15~-------------------------
D-------------------------------------------------------------------
A-------------------------------------------------------------------
E-------------------------------------------------------------------