20121106

ALVIN ÉS A MÓKUSOK - VISSZA A KŐKORSZAKBA TAB (AKUSZTIK)



INTRO

e-1-------0-------1-------0-------0---------------0-----------------
H-----------------------------------------3---------------3---------
G-----2-------2-------2-------0-------0-------0-------0-------0-----
D-0---------------0-------------------------------------------------
A---------------------------------3---------------3-----------------
E-------------------------------------------------------------------


e-------------------------------------------------0-----------------
H-3-------3-------3-------3-------2-------2-------3-----/-5---------
G-----0-------0-------0-------0-------0-------0-------0-------0-----
D-------------------------------------------------------------------
A-1-------------------------------0---------------------------------
E-------------------------------------------------------------------


e-1-------0-------1-------0-------0---------------0-----------------
H-----------------------------------------3---------------3---------
G-----2-------2-------2-------0-------0-------0-------0-------0-----
D-0---------------0-------------------------------------------------
A---------------------------------3---------------3-----------------
E-------------------------------------------------------------------


e-------------------------------------------------0-----------------
H-3-------3-------3-------3-------2-------2-------3-----/-5---------
G-----0-------0-------0-------0-------0-------0-------0-------0-----
D-------------------------------------------------------------------
A-1-------------------------------0---------------------------------
E-------------------------------------------------------------------


e-----------------1-------0-------1-------0-------1-------0---------
H---------3---------------------------------------------------------
G-----2-------2-------2-------2-------2-------2-------2-------2-----
D-0-----------------------------------------------------------------
A-------------------------------------------------------------------
E-------------------------------------------------------------------


e---------0-------1-------0-------1-------0-------0-----------------
H-------------------------------------------------3-----------------
G-----2-------2-------2-------2-------2-------2---2-----------------
D-------------------------------------------------0-----------------
A-0-------------------------------1---------------------------------
E-------------------------------------------------------------------


VERSE 1

(az intro eleje 4x)


REFR AKKORDOK

e-1-------0-------1-------0-------1-------0-------1.----------------
H-3-------2-------3-------1-------3-------2-------3.----------------
G-3-------2-------2-------0-------3-------2-------2.----------------
D-3-------2-------0-------2-------3-------2-------0.----------------
A-1-------0---------------3-------1-------0-------------------------
E-------------------------------------------------------------------


e-1-------0-------1-------0-------1-------0-------------------------
H-3-------2-------3-------1-------3-------2-------------------------
G-3-------2-------2-------0-------3-------2-------------------------
D-3-------2-------0-------2-------3-------2-------------------------
A-1-------0---------------3-------1-------0-------------------------
E-------------------------------------------------------------------

(figyelem itt megfordul!!!)
e---------1-------0-------1-------0-------1-------0-------1---------
H-------------------------------------------------------------------
G-----2-------2-------2-------2-------2-------2-------2-------2-----
D-0-----------------------------------------------------------------
A-------------------------------------------------------------------
E-------------------------------------------------------------------

(itt meg olyan mint az eredeti)
e---------0-------1-------0-------1-------0-------1-----------------
H-------------------------------------------------3-----------------
G-----2-------2-------2-------2-------2-------2---2-----------------
D-------------------------------------------------0-----------------
A-0-----------------------------------------------------------------
E-------------------------------------------------------------------



VERSE 2

egyik gitár a köv. akkordokat "darálja" :)

e-0-------0-------1-------0-----------------------------------------
H-3-------1-------3-------2-----------------------------------------
G-2-------0-------3-------2-------- ez elmegy 2x -------------------
D-0-------2-------3-------2-----------------------------------------
A---------3-------1-------0-----------------------------------------
E-------------------------------------------------------------------


(a másik gitár pötyörészik egy ilyet)

e-------1---0-1.---------1---0-1.---------1---0-1.---------1---0-1--
H-3-3-x------------1-1-x--------------------------------------------
G-----------------------------------3-3-x------------2-2-x----------
D-------------------------------------------------------------------
A-------------------------------------------------------------------
E-------------------------------------------------------------------


REFR 2 (ua. mint refr 1)

VERSE 1 2x (Itt nincs szöveg)

VÉGJÁTÉK

e-0-------1-------0-------0-----------------------------------------
H-3-------3-------1-------2-----------------------------------------
G-2-------3-------0-------2----------- 4 körön át-------------------
D-0-------3-------2-------2-----------------------------------------
A---------1-------3-------0-----------------------------------------
E-------------------------------------------------------------------


e-------------------------------------------------------------------
H-3--------------------------3.-------------------------------------
G-2--------------------------2.-------------------------------------
D-0--------------------------0.-------------------------------------
A-------------------------------------------------------------------
E-------------------------------------------------------------------