20121108

BIKINI ADJ HELYET MAGAD MELLETT TAB (SZÓLÓ)


e-------------------------------------------------------------------
H-------------------------------------------------------------------
G-2-4-4/5~---5-4-2---/11~--------11-11-10~-------10(12)---10-9~-----
D-------------------------------------------------------------------
A-------------------------------------------------------------------
E-------------------------------------------------------------------


e---------------8-7-------------------------------------------------
H----------10-8-----8-----------------------------------------------
G------9-7------------7~---------/4---4-4---4/5---4-2---------------
D-10-7--------------------------------------------------------------
A-------------------------------------------------------------------
E-------------------------------------------------------------------


e-------------------------------------------------------------------
H-------------------------------------------------------------------
G-/9~-------7---5-5/7~----------7-7~----7h9-------------------------
D---------------------------------------------10-9-7~---------------
A-------------------------------------------------------------------
E-------------------------------------------------------------------


e-------------------------------------------------------------------
H-------------------------------------------------------------------
G-2-4-4/5~---5-4-2---/4---0---<5>---<12>---/4---4-4---4/5---4-2~----
D-------------------------------------------------------------------
A-------------------------------------------------------------------
E-------------------------------------------------------------------