20121106

BIKINI KÖZELI HELYEKEN TAB (SZÓLÓ)



BIKINI KÖZELI HELYEKEN SZÓLÓ TAB

Akusztikus gitár

e-------------------------------------------------------------------
H-----------------------------0-------------------------------------
G------------0------------0-2-----2---0-----------------------------
D-2------4-------4----------------------4-2-------------------------
A-------------------------------------------------------------------
E-------------------------------------------------------------------


e-------------------------------------------------------------------
H-------------0-------------------0---1-----------------------------
G-------2-----------2h4p2-0---2---------2-4~------------------------
D-2-4-5---5---------------------------------------------------------
A-------------------------------------------------------------------
E-------------------------------------------------------------------


Szólógitár

e-12---15---17---17(19)\-/(19)---17(19)---(19)-(19)\(17)p15-17~-----
H-------------------------------------------------------------------
G-------------------------------------------------------------------
D-------------------------------------------------------------------
A-------------------------------------------------------------------
E-------------------------------------------------------------------


e-22(24)\-/(24)---22(24)---22---19h22-19----------------------------
H-------------------------------------------------------------------
G-------------------------------------------------------------------
D-------------------------------------------------------------------
A-------------------------------------------------------------------
E-------------------------------------------------------------------


e-------5--------------7-8------------------------------------------
H-5-7-8---8~---/8---10-----10~---8(10)---8-7h8p7--------------------
G-----------------------------------------------8---8/10~-----------
D-------------------------------------------------------------------
A-------------------------------------------------------------------
E-------------------------------------------------------------------