20121123

BON BON VÁLASSZ ENGEM TAB (SZÓLÓ)


e-------------------------------------------------------------------
H-------------------------------------------------------------------
G------8-9-11/13.---8.--9--------9-11p9\8---------------------------
D-9/11--------------9.--11----------------11-9----11----------------
A----------------------------------------------11-------------------
E-------------------------------------------------------------------


e-------------------9--9----9.---7.---------------------------------
H----------------12-10-10.--10.--9.--7h9p7--------------------------
G------8-9-11/13---------------------------9------------------------
D-9/11--------------------------------------------------------------
A-------------------------------------------------------------------
E-------------------------------------------------------------------


e-12---------------12------11-\--------------------------9----------
H-12h14---p12------12h14.--12-\---------------------12.--10---------
G-------------14.-----------------------8-9-11/13-------------------
D----------------------------------9/11-----------------------------
A-------------------------------------------------------------------
E-------------------------------------------------------------------


e-14h15p14p12-12.-----12--------------------------------------------
H------------------14.-----14p12------------------------------------
G--------------------------------13\11-9----------------------------
D-------------------------------------------------------------------
A-------------------------------------------------------------------
E-------------------------------------------------------------------


e-------------12-9h12p9---------------------------------------------
H-9-10.--10-------------10------------------------------------------
G-9-11.--11----------------9\6--------------------------------------
D------------------------------7------------------------------------
A-------------------------------------------------------------------
E-------------------------------------------------------------------


e-12---------------12-----------------------------------------------
H-12h14---p12------12h14.--12-----12p10p9---------------------------
G-------------14.------------------------11p9p8---------------------
D----------------------------------------------11p9-----------------
A-------------------------------------------------------------------
E-------------------------------------------------------------------