20121106

DEÁK BILL FELSZARVAZOTTAK BALLADÁJA TAB



intro

e-------------------------------------------------------------------
H-------------------------------------------------------------------
G-------------5---------------------3-------------------------------
D-6/7---7-9-7-7---7-9---6\5---5-7-5-5---5---------------------------
A-4/5---5-5-5-----5-5---4\3---3-3-3-----3---------------------------
E-----------------------------------------6'--3---------------------


e-----3-----------------------------------------3-------------------
H-2/3---6-3---------------3-------------------3---6/8---------------
G-----------6-5p3---5-3h4---3(4)----------3h4-----------------------
D-----------------5-------------------------------------------------
A--------------------------------5-5--------------------------------
E-------------------------------------------------------------------


verse

e-------------------------------------------------------------------
H-------------------------------------------------------------------
G----------4\3---------4/5-----4\3----------------------------------
D----------3\2---------3/4-----3\2----------------------------------
A----------4\3---------4/5-----4\3----------------------------------
E-------------------------------------------------------------------


e-----3-----------------------------------------3-------------------
H-2/3---6-3---------------3-------------------3---6/8---------------
G-----------6-5p3---5-3h4---3(4)----------3h4-----------------------
D-----------------5-------------------------------------------------
A--------------------------------5-5--------------------------------
E-------------------------------------------------------------------


e-------------------------------------------------------------------
H-------------------------------------------------------------------
G----------4\3---------4/5-----4\3----------------------------------
D----------3\2---------3/4-----3\2----------------------------------
A----------4\3---------4/5-----4\3----------------------------------
E-------------------------------------------------------------------


e-----3-----------------------------------------5-5-5-6-6-6-7-7-7---
H-2/3---6-3---------------3-------------------3-4-4-4-5-5-5-6-6-6---
G-----------6-5p3---5-3h4---3(4)----------3h4---5-5-5-6-6-6-7-7-7---
D-----------------5-------------------------------------------------
A--------------------------------5-5--------------------------------
E-------------------------------------------------------------------


refr

e-------------------------------------------------------------------
H-------------------------------------------------------------------
G---------0-3'--0-2---0-------0-3-----------------------------------
D-----2-------------------1h2-------------0-3'--0-2---0-------0-5---
A-3-----------------------------------2-------------------1h2-------
E---------------------------------3---------------------------------


e------------------------------------------------------------3------
H----------------------------------------------------------3---6/8--
G-------------------------------2----------------------3h4----------
D---------2-5'--2-4---2-------2-------------------------------------
A-----4-------------------3h4-----5---------------------------------
E-5-----------------------------------------------------------------


szóló

e---------3---3-----3---3---3---3---3-----3---3---3-----------------
H-------3-----------------------------------------------------------
G-3h4---------------------------------------------------------------
D-------------------------------------------------------------------
A-------------------------------------------------------------------
E-------------------------------------------------------------------


e-(6)(5)p3---5---3--------------------------------------------------
H----------5---x----------------------------------------------------
G----------------------------------------------3---5-(6)(5)p3-5-3h4-
D------------------------------------3-3---3h5---------------5-x---5
A---------------------/3-1---3-3/5----------------------------------
E-------------------------------------------------------------------


e-----3-------------------------------------------------------------
H-2/3---6-3---------------3-----------------------------------------
G-----------6-5p3---5-3h4---3(4)------------------------------------
D-----------------5-------------------------------------------------
A--------------------------------5-5--------------------------------
E-------------------------------------------------------------------


Herfli alatt

e-------------------------------------------------------------------
H-------------------------------------------------------------------
G-------------------------------------------------------------------
D-------------------------------------------------------------------
A-5---5-7---5-5---5-7---5-5---5-7---5-5---5-7---5-------------------
E-3---3-3---3-3---3-3---3-3---3-3---3-3---3-3---3-------------------
  x   x x   x x   x x   x x   x x   x x   x x   x

e-------------------------------------------------------------------
H-------------------------------------------------------------------
G-------------3-----------------------3-----------------------------
D-5---5-7---5-5---5-7---5-5---5-7---5-5---5-7-----------------------
A-3---3-3---3-----3-3---3-3---3-3---3-----3-3-----------------------
E-------------------------------------------------------------------
  x   x x   x     x x     x   x x   x     x x

e-------------------------------------------------------------------
H-------------------------------------------------------------------
G-------------------------------------------------------------------
D-6/7--------6\5----------------------------------------------------
A-4/5--------4\3--------4/5-----------------------------------------
E-----------------------2/3-----------------------------------------


e-----3-----------------------------------------3-------------------
H-2/3---6-3---------------3-------------------3---6/8---------------
G-----------6-5p3---5-3h4---3(4)----------3h4-----------------------
D-----------------5-------------------------------------------------
A--------------------------------5-5--------------------------------
E-------------------------------------------------------------------


4.refrtől

e-------------------------------------------------------------------
H-------------------------------------------------------------------
G---------0-3'--0-2---0-------0-3-----------------------------------
D-----2-------------------1h2-------------0-3'--0-2---0-------0-5---
A-3-----------------------------------2-------------------1h2-------
E---------------------------------3---------------------------------


e-------------------------------------------------------------------
H-------------------------------------------------------------------
G-------------------------------2---------2-5'--2-4---2-------------
D---------2-5'--2-4---2-------2-------4-----------------------------
A-----4-------------------3h4-----5-----------------------4---------
E-5-----------------------------------------------------------------


Vége

e-----3-------------------------------------------------------------
H-2/3---6-3---------------3-----------------------------------------
G-----------6-5p3---5-3h4---3---4-----------------------------------
D-----------------5---------2---3-----------------------------------
A-------------------------------------------------------------------
E-------------------------------------------------------------------