20121121

DEÁK BILL ROSSZ VÉR TAB (SZÓLÓ)


Deák Bill Gyula - Rossz Vér gitár szóló tab az alábbi verzió alapján (3:03 - 4:06)


DEÁK BILL ROSSZ VÉR SZÓLÓ TAB

GP5 + GP6 + PDF >>

Szóló

e-----------------------------------------------------------------------
B-----------------------------------------------------------------------
G--------------------------------14(16)-14~~~---------------------------
D---------12-12-14~~~---------------------------------------------------
A------/14--------------------------------------------------------------
E-----------------------------------------------------------------------


e-----------------------------------------------------------------------
B------------------12-12-15~-----------15-15~---15p12-------------------
G------12-14(16)--------------------------------------14(16)-14~~~------
D---14------------------------------------------------------------------
A-----------------------------------------------------------------------
E-----------------------------------------------------------------------


e------12-12h14---------------------------------------------------------
B---12----------15~-----------12-15-15p12----------15-------------------
G----------------------------------------14(16)-12---14(16)-14~---------
D-----------------------------------------------------------------------
A-----------------------------------------------------------------------
E-----------------------------------------------------------------------


e-----------------------------------------------------------------------
B-----------------------------------------------------------------------
G---12h14p12-\11h12p11-\9h11p9-\7h9p7~~~--------------------------------
D-----------------------------------------------------------------------
A-----------------------------------------------------------------------
E-----------------------------------------------------------------------


e-----------------------------------------------------------------------
B-----------------------------------------------------------------------
G--------------------------------------------------12h14~~~-------------
D------7-9-9h10-9-7------------------------------12---------------------
A---10--------------10~------------------10-12/14-----------------------
E-----------------------------------10/12-------------------------------


e----12--------12-------------------------------------------------------
B--12--12-15-15---------------------------12-12-15-15(17)-15------------
G----------------(16)(14)-12h14-12-14(16)-------------------(16)(14)----
D-----------------------------------------------------------------------
A-----------------------------------------------------------------------
E-----------------------------------------------------------------------

Itt bevadul picit...
e------------------------------------------------------------12-15p12---
B---------------12-15-15(17)-15-12----------------------12-15--------15-
G-----12-14(16)-------------------(16)(14)p12--14--12h14----------------
D--14----------------------------------------14--14---------------------
A-----------------------------------------------------------------------
E-----------------------------------------------------------------------


e----12-----------------------------------------------------------------
B--12--15p12-------12-15------------------------------------------------
G-----------14(16)------(16)(14)p12-----12------------------------------
D----------------------------------14p12--14p12-----12------------------
A----------------------------------------------14-12--14p12-------------
E----------------------------------------------------------15-12\10-----


e-----------------------------------------------------------------------
B-----------------------------------------------------------------------
G-----------------12-------14p12-14~~~----------------------------------
D-------------12--------------------------------------------------------
A-----10-/14------------------------------------------------------------
E---12------------------------------------------------------------------


....aztán újra nyugi

e--15-17-17h19~--17h19~~~--------19p17p15-17~-----17h19-17~~~-----------
B-----------------------------------------------------------------------
G-----------------------------------------------------------------------
D-----------------------------------------------------------------------
A-----------------------------------------------------------------------
E-----------------------------------------------------------------------


e----12h14-14---------------------12-12---------------------------------
B--12--------15~--------12-15(17)-------15------------------------------
G-----------------------------------------14(16)---(14)p12--12h14~------
D---------------------------------------------------------14------------
A-----------------------------------------------------------------------
E-----------------------------------------------------------------------


e-----------------------------------------------------------------------
B-----------------------------------------------------------------------
G---12-14(16).----------------------------------------------------------
D-----------------------------------------------------------------------
A-----------------------------------------------------------------------
E-----------------------------------------------------------------------