20121106

EDDA A KÖR TAB (SZÓLÓ)



e-15(17)-15(17)\(15)/(17)\(15)/(17)~--------------------------------
H-------------------------------------------------------------------
G-------------------------------------------------------------------
D-------------------------------------------------------------------
A-------------------------------------------------------------------
E-------------------------------------------------------------------


e-15(17)-15-13--12-13----12-----------------------------------------
H---------------------15-----13-15-12-13p12--12~~-------------------
G------------------------------------------14-----------------------
D-------------------------------------------------------------------
A-------------------------------------------------------------------
E-------------------------------------------------------------------


e-------------------------------------------------------------------
H-------------------------------------------------------------------
G-5-7-5-7-7(9)-7-5-4-----------------------------7(9)-7-//-(9)~~~---
D-------------------5~~-------------------5~------------------------
A-----------------------------3---3-7--3-5--------------------------
E-------------------------3-5---5-----------------------------------
  x x x x                 x x x x   x  x


e-------------------------------------------------------------------
H-----8------------------------8-10p8--8~--5------------------------
G-7(9)--7(9)\(7)-5-4-5-4-------------9-------7-7p5--5---5-----------
D-----------------------5~~-----------------------7---7-------------
A-------------------------------------------------------------------
E-------------------------------------------------------------------


e-------------------------------------------------------------------
H-------------------------------------------------------------------
G-7(9)-7-5-4-5-4----------------------------------------------------
D---------------5~~--------------------5~---------------------------
A--------------------------3-3/5---5--5-----------------------------
E----------------------3-5-------5--8-------------------------------
                       x x       x  x  

e-------------------------------------------------------------------
H----------------------------13(15)-13-12----12---------------------
G-7(9)-7-5-4-5-4-----------12-------------14----12-14~~-------------
D---------------5~~-------------------------------------------------
A-------------------------------------------------------------------
E-------------------------------------------------------------------
                           x

e--------------12-13----12------------------------------------------
H-12--12-13-15-------15----13-15-12-13p12--12~----8-10p8---8--------
G----------------------------------------14-------------9----9-7-5~~
D-------------------------------------------------------------------
A-------------------------------------------------------------------
E-------------------------------------------------------------------


e-------------------------------------------------------------------
H-----8---------------------------------------------10~~--------\---
G-7(9)--7(9)\(7)-5-4--5-4-------------------------------------------
D------------------------5~~-----------------5~---------------------
A-----------------------------------3-5-7-3-5-----------------------
E-------------------------------3-5---------------------------------
                                    x     x