20121115

GRINGO SZTÁR PÁLINKA SUNRISE TAB (AKKORDOK)


Refr

e---3---3---1---1---3---3---3---3-----------------------------------
H---4---4---1---1---3---3---4---4-----------------------------------
G---5---5---1---1---3---3---5---5-----------------------------------
D---5---5---3---3---5---5---5---5-----------------------------------
A---3---3---3---3---5---5---3---3-----------------------------------
E-----------1---1---3---3-------------------------------------------


Duma alatt

e----3-------------------------1-----------------3------------------
H----4-------------------------1-----------------3------------------
G----5------- 8x --------------1------ 4x -------3----- 4x ---------
D----5-------------------------3-----------------5------------------
A----3-------------------------3-----------------5------------------
E------------------------------1-----------------3------------------


Bridge

e-------------------------------------------------------------------
H-4---4-x-4-4---4-x-4--1---1-x-1-1---1-x-1-1---1-x-1-3---3---3-x-3-3
G-5---5-x-5-5---5-x-5--1---1-x-1-1---1-x-1-1---1-x-1-3---3---3-x-3-3
D-5---5-x-5-5---5-x-5--3---3-x-3-3---3-x-3-3---3-x-3-3---3---3-x-3-3
A-3---3---3-3---3---3--3---3---3-3---3---3-3---3-x-3----------------
E----------------------1---1---1-1---1---1-1---1-x-1----------------