20121108

HBB HOSSZULÁBÚ ASSZONY TAB (INTRO + SZÓLÓ)

Hobo Blues Band - Hosszúlábú Asszony intro és szóló tab az alábbi verzió alapján.


HOBO BLUES BAND HOSSZULÁBÚ ASSZONY TAB

Intro

e-------------------------------------------------------------------
H-------------------------------------------------------------------
G-------------------------------------------------------------------
D-2-2-2-2-2-2-2-2-2-2-2-2--2p0--------------------------------------
A------------------------------2-0h2--------------------------------
E------------------------------------3-0.---------------------------


e----4-----3-----2---0.---------------------------------------------
H-------------------------------------------------------------------
G-/4---4-3---3-2---2-1.---------------------------------------------
D-------------------------2-3--4------------------------------------
A-------------------------0-1--2------------------------------------
E-------------------------------------------------------------------



Szóló

e--------------------17(19)-17.--15-17-15~--------------------------
H-----17.--17~-----------------------------------/17-15~------------
G-/16---------------------------------------------------------------
D-------------------------------------------------------------------
A-------------------------------------------------------------------
E-------------------------------------------------------------------


e---------12-14(15).-14(15)(14)p12----12----------------------------
H-12h14----------------------------15----15(17)---------------------
G-------------------------------------------------------------------
D-------------------------------------------------------------------
A-------------------------------------------------------------------
E-------------------------------------------------------------------


e-15(17)---12---------------------------12--------------------------
H-------------15-12------------------12----15p14p12-----------------
G-------------------12'--------12h13----------------15p14p12-13~----
D------------------------14~----------------------------------------
A-------------------------------------------------------------------
E-------------------------------------------------------------------


e----14(15).-14(15)(14)p12----12----------15(17)--17(19)--15(17)-12.
H-12-----------------------15----15(17)-----------------------------
G-------------------------------------------------------------------
D-------------------------------------------------------------------
A-------------------------------------------------------------------
E-------------------------------------------------------------------


e----------12-------------------------------------------------------
H-------12----15p12-------------------------------------------------
G-12h13-------------15-14p12----14.---12----------------------------
D----------------------------14----------14-------------------------
A---------------------------------------------14~-\----------3---2--
E------------------------------------------------------------1---0--