20121111

HOBO 320AS BLUES TAB



Ritmusgitár

e-------------------------------------------------------------------
H-------------------------------------------------------------------
G-------------------------------------------------------------------
D-7---7-9---7-7---7-9---7-7---7-9---7-7---7-9---7-------------------
A-5---5-5---5-5---5-5---5-5---5-5---5-5---5-5---5-------------------
E-------------------------------------------------------------------
      x     x     x     x     x     x     x     x

e-------------------------------------------------------------------
H-------------------------------------------------------------------
G-------------------------------------------------------------------
D-7---7-9---7-7---7-9---7-7---7-9---7-7---7-9---7-------------------
A-5---5-5---5-5---5-5---5-5---5-5---5-5---5-5---5-------------------
E-------------------------------------------------------------------
      x     x     x     x     x     x     x     x

e-------------------------------------------------------------------
H-------------------------------------------------------------------
G-------------------------------------------------------------------
D-------------------------------------------------------------------
A-5---5-7---5-5---5-7---5-5---5-7---5-5---5-7---5-------------------
E-3---3-3---3-3---3-3---3-3---3-3---3-3---3-3---3-------------------
      x     x     x     x     x     x     x     x
 
e-------------------------------------------------------------------
H-------------------------------------------------------------------
G-------------------------------------------------------------------
D-7---7-9---7-7---7-9---7-7---7-9---7-7---7-9---7-------------------
A-5---5-5---5-5---5-5---5-5---5-5---5-5---5-5---5-------------------
E-------------------------------------------------------------------
      x     x     x     x     x     x     x     x
  
e-------------------------------------------------------------------
H-------------------------------------------------------------------
G-------------------------------------------------------------------
D-------------------------------------------------------------------
A-7---7-9---7-7---7-9---7-5---5-7---5-5---5-7---5-------------------
E-5---5-5---5-5---5-5---5-3---3-3---3-3---3-3---3-------------------
      x     x     x     x     x     x     x     x

e-------------------------------------------------------------------
H-------------------------------------------------------------------
G-------------------------------------------------------------------
D-7---10--9---8---7---10--9---8---7---10--9---8---7.----------------
A-5---8---7---6---5---8---7---6---5---8---7---6---5.----------------
E-----------------------------------------------------3-4---5~------


Intro Solo

e-10-10-10--10-10-10--10-10-10--10-10-10----------------------------
H-10-10-10--10-10-10--10-10-10--10-10-10----------------------------
G----------------------------------------11-------------------------
D---------------------------------------------12--------------------
A-------------------------------------------------------------------
E-------------------------------------------------------------------


e-10-10-10--10-10-10--10-10-10--10-10-10----------------------------
H-10-10-10--10-10-10--10-10-10--10-10-10----------------------------
G----------------------------------------11-------------------------
D---------------------------------------------12--------------------
A-------------------------------------------------------------------
E-------------------------------------------------------------------


e-------------------------------------------------------------------
H-------------------------------------------------------------------
G-10-10.--10-10'---------------10------10---12(14)(12)(14)~---------
D-----------------12---10h12------12--------------------------------
A-------------------------------------------------------------------
E-------------------------------------------------------------------


e-------------------------------------------------------------------
H--------13---------------------------------------------------------
G-12(14)----(14).-(14)(12)-10h12p10~-----10h12p10----10'-----10.----
D-------------------------------------12----------12------12--------
A-------------------------------------------------------------------
E-------------------------------------------------------------------


e----------10-------------------------------------------------------
H-------------13-10-------------------------------------------------
G-12(14)------------13-12p10----12----10-12(14).-(14)(12)p10----10~-
D----------------------------12----12------------------------12-----
A-------------------------------------------------------------------
E-------------------------------------------------------------------


e----------------------------------------------10-------------------
H-------------------------------------------------13-10-------------
G-10------10-12(14)--12(13)--12~-10---12(14)------------13-12p10----
D----12----------------------------------------------------------12-
A-------------------------------------------------------------------
E-------------------------------------------------------------------


e-------------------------------------------------------------------
H-------------------------------------------------------------------
G-10-12(14)--12(13)--12~---10.--------------------------------------
D-------------------------------12-10-------------------------------
A---------------------------------------12~-------------------------
E-------------------------------------------------------------------