20121122

HOBO BLUES BAND KŐBÁNYA BLUES TAB


Intro

e-------------------------------------------------------------------
H-------------------------------------------------------------------
G-----------------------------------------0-------------------------
D-2.--2.--2------------2.--2.--2------0h2---------------------------
A-0.--0.--0------------0.--0.--0------------------------------------
E---------------0-3'------------------------------------------------


e-------------------------------------------------------------------
H-------------------------------------------------------------------
G-------------------------------------------------------------------
D-2.--2.--2--------------/7---5------5------------------------------
A-0.--0.--0-----------------------5h7--5h7--5-3---------------------
E---------------0-3'------------------------------------------------


Verse

e-------------------------------------------------------------------
H-------------------------------------------------------------------
G-----------------------------------------0-------------------------
D-2.--2.--2------------2.--2.--2------0h2--0------------------------
A-0.--0.--0------------0.--0.--0------------------------------------
E---------------0-3'------------------------------------------------


e-------------------------------------------------------------------
H-------------------------------------------------------------------
G-----------------------------------------0-------------------------
D-2.--2.--2------------2.--2.--2------0h2---------------------------
A-0.--0.--0------------0.--0.--0------------------------------------
E---------------0-3'------------------------------------------------


e-------------------------------------------------------------------
H-------------------------------------------------------------------
G-----------------------------------------0-------------------------
D-2.--2.--2------------2.--2.--2------0h2--0------------------------
A-0.--0.--0------------0.--0.--0------------------------------------
E---------------0-3'------------------------------------------------


e-------------------------------------------------------------------
H-------------------------------------------------------------------
G-------------------------------------------------------------------
D-2.--2.--2--------------/7---5------5------------------------------
A-0.--0.--0-----------------------5h7--5h7--5-3---------------------
E---------------0-3'------------------------------------------------


Refr

e-------------------------------------------------------------------
H-------------------------------------------------------------------
G-------------------------------------------------------------------
D-5.--5.--7-------3.--3.--2--------------------   3x   -------------
A-3.--3.--5-------1.--1.--0-----0-2---------------------------------
E-------------------------------------------------------------------


e-------------------------------------------------------------------
H------------------------------(8)----------------------------------
G------------------------------(7)----------------------------------
D-5.--5.--7-------3.--3.-------(6)----------------------------------
A-3.--3.--5-------1.--1.--2----(7)----------------------------------
E-------------------------0-----------------------------------------


Szóló

e-------------------------------------------------------------------
H-7(8).---7.---5~---------------------------------------------------
G-7(8).---7.---5~------------5h6-------------5~~--------------------
D--------------------------7-----7-5-7~--7~-------------------------
A-------------------------------------------------------------------
E-------------------------------------------------------------------


e-------------------------------------------------------------------
H-7(8).---7.---5~---------------------------------------------------
G-7(8).---7.---5~------------5h6------------------------------------
D--------------------------7-----7-5-7~-----7~--5------5------5-----
A---------------------------------------------------5h7--5-5h7--5---
E-------------------------------------------------------------------


e-------------------------------------------------------------------
H-7(8).---7.---5~---------------------------------------------------
G-7(8).---7.---5~------------5h6-------------5~~-/------------------
D--------------------------7-----7-5-7~--7~-------------------------
A-------------------------------------------------------------------
E-------------------------------------------------------------------


e-14(15).---14.-----------------------------------------------------
H-15(16).---15.---13~------13h14------------------------------------
G------------------------14-----14-12-14~--12~-------12-------------
D-----------------------------------------------12h14--12h14-12-10\-
A-------------------------------------------------------------------
E-------------------------------------------------------------------