20121115

HOOLIGANS JÁTSZOM TAB


Verse

e-0-----------------------------------------------------------------
H-1---------------1-------------1---------------1-------------------
G-0---------------2-------------2-------4-------0-------2---4-------
D-2---------------2-------------3-------5-------2-------3---5-------
A-3---------------0-------------3-------5-------3-------3---5-------
E-------------------------------1-------3---------------1---3-------


Bridge

e-------------------------------------------------------------------
H-------------------------------------------------------------------
G-------------------------------------------------------------------
D-------------------------------------------------------------------
A-0-----------------------3---2---0---------------------------------
E---------1-------3-----------------------1---------3.----3.--3-----


Refr

e-------------------------------------------------------------------
H-------------------------------------------------------------------
G-------------------------------------------------------------------
D-------------------------------------------------------------------
A-3-----------------------3---2---0-----------------------0---------
E-------------------------------------------------------------3-----


e-----1-------3-------0-------0-----1.--1.--1--------3.--3.--3------
H-----1-------3-------0-------1-----1.--1.--1--------3.--3.--3------
G-----2-------4-------0-------2-----2.--2.--2--------4.--4.--4------
D-----3-------5-------2-------2-----3.--3.--3--------5.--5.--5------
A-------------------------0---------3.--3.--3--------5.--5.--5------
E-1-------3-------0-----------------1.--1.--1--------3.--3.--3---4--


2. refr után

e-------------------------------------------------------------------
H-------------------------------------------------------------------
G-0-0-0-0-0-0-0-0-3-3-3-3-3-3-3-3-----------------------------------
D-2-2-2-2-2-2-2-2-2-2-2-2-2-2-2-2-----------------------------------
A-3-3-3-3-3-3-3-3-3-3-3-3-3-3-3-3-----------------------------------
E-------------------------------------------------------------------


e-1---------------0---------------1---------------0-----------------
H-1---------------1---------------1---------------1-----------------
G-2---------------0---------------2---------------0-----------------
D-3---------------2---------------3---------------2-----------------
A-3---------------3---------------3---------------3-----------------
E-1-------------------------------1---------------------------------


e-1---------------0-------0-------1---------------3-----------------
H-1---------------1-------1-------1---------------3-----------------
G-2---------------0-------2-------2---------------4-----------------
D-3---------------2-------2-------3---------------5-----------------
A-3---------------3-------0-------3---------------5-----------------
E-1-------------------------------1---------------3-----------------


Szóló

e-------------------------------------------------------------------
H-------------------------------------------------------------------
G-------------------------------0-0---0---2-------------------------
D-------5-------3p2-3---2-----2-----2-------------------------------
A-3-----------------------3-----------------------------------------
E-------------------------------------------------------------------


e-------------------------------------------------------------------
H------------------------------/10-8--------------------------------
G------------------------------------9---9---7-9-10--9--7------7~---
D-------5-------3p2-3---2----------------------------------10-------
A-0-----------------------3-----------------------------------------
E-------------------------------------------------------------------


e-------------------------5.---10(12)---10(12)(10)p8---8------------
H-----5h6p5---5-----------5.------------------------10--------------
G-5-7-------7---7-5-4-5---------------------------------------------
D-------------------------------------------------------------------
A-------------------------------------------------------------------
E-------------------------------------------------------------------


e-------5-------5---------------------------------------------------
H-8(10)---8(10)---8---5-8-5---6p5---------8-------------------------
G---------------------------7-----7-5-7/9---------------------------
D-------------------------------------------------------------------
A-------------------------------------------------------------------
E-------------------------------------------------------------------