20121106

HOOLIGANS KIRÁLYLÁNY TAB (INTRO)


e-------------------------------------------------------------------
H-------------------------------------------------------------------
G-------------------------------------------------------------------
D---------5-------------------------------5----------7/9------------
A-5/7--------7---x-x-7-------5----5/7--------7---x-x-----5~---------
E------7-----------------5h7-----------7----------------------------


e-------------------------------------------------------------------
H-------------------------------------------------------------------
G-------------------------------------------------------------------
D---------5-------------------------------5----------7/9------------
A-5/7--------7---x-x-7-------5----5/7--------7---x-x-----5~---------
E------7-----------------5h7-----------7----------------------------


e-------------------------------------------------------------------
H-------------------------------------------------------------------
G-------------------------------------------------------------------
D---------5-------------------------------5----------7/9------------
A-5/7--------7---x-x-7-------5----5/7--------7---x-x-----5~---------
E------7-----------------5h7-----------7----------------------------


e-------------------------------------------------------------------
H-------------------------------------------------------------------
G-------------------------------------12h14-----12h14-----14/16--12-
D---------5----------------------12h14-----12h14-----12/14----------
A-5/7--------7---x-x-7-------5--------------------------------------
E------7-----------------5h7----------------------------------------