20121106

HOOLIGANS MENJ TOVÁBB TAB



verse

  Em      G       Em      G   D    Em      G       Em      G   D   

e-3-------3-------3-------3---2----3-------3-------3-------3---2----
H-0-------0-------0-------0---3----0-------0-------0-------0---3----
G-0-------0-------0-------0---2----0-------0-------0-------0---2----
D-2-------0-------2-------0---0----2-------0-------2-------0---0----
A-2-------2-------2-------2---0----2-------2-------2-------2---0----
E-0-------3-------0-------3--------0-------3-------0-------3--------


Bridge

  C       Em      C       Em      C       Em      A       D7

e-3-------3-------3-------3-------3-------3-------0-------2---------
H-1-------0-------1-------0-------1-------0-------2-------1---------
G-0-------0-------0-------0-------0-------0-------2-------2---------
D-2-------2-------2-------2-------2-------2-------2-------0---------
A-3-------2-------3-------2-------3-------2-------0-------0---------
E---------0---------------0---------------0-------------------------


Refr

  G   Hm  C   D   G   Hm  C   D   G   H   C   D   G   Hm  C   D  

e-3---2---0---2---3---2---0---2---3---2---0---2---3---2---0---2-----
H-0---3---1---3---0---3---1---3---0---4---1---3---0---3---1---3-----
G-0---4---0---2---0---4---0---2---0---4---0---2---0---4---0---2-----
D-0---4---2---0---0---4---2---0---0---4---2---0---0---4---2---0-----
A-2---2---3---0---2---2---3---0---2---2---3---0---2---2---3---0-----
E-3---------------3---------------3---------------3-----------------


Szóló

e-------------------------------------------------------------------
H--------------------------------------15(17)------15~--------------
G-/12---12---12-12-11.--12.-12h14-----------------------------------
D-------------------------------------------------------------------
A-------------------------------------------------------------------
E-------------------------------------------------------------------


e----15---15--15--15--15--15.--17(19)-------------------------------
H-/15--15---15--15--15--15----------------15(17)--15(17).--15-------
G-------------------------------------------------------------------
D-------------------------------------------------------------------
A-------------------------------------------------------------------
E-------------------------------------------------------------------


e------------------11--------11-11-11h12----------------------------
H-------------12----------------------------------------------------
G-/12p11-12---------------------------------------------------------
D-------------------------------------------------------------------
A-------------------------------------------------------------------
E-------------------------------------------------------------------


e-------------------------------------------------------------------
H-/15------15-------------------------------------------------------
G-/14(16)--14(16)--14(16)(14)-12----------------12-12---------------
D----------------------------------------12h14----------------------
A-------------------------------------------------------------------
E-------------------------------------------------------------------


e--------------12--------12---------------------15------------------
H-----------------------------------------------15-15---------------
G-12-12-14(16)----14(16)----14(16)-------14(16)-------(16)(14)--12--
D-------------------------------------------------------------------
A-------------------------------------------------------------------
E-------------------------------------------------------------------