20121106

KÁRPÁTIA SZÉKELYHIMNUSZ TAB



fő dallam
(gitár 1)
e-------------------------------------------------------------------
H-------------------------------------------------------------------
G---------------------------5~-5~-----------------------------------
D-5-----5--7~-7~-5-5-----5------------------------------------------
A----7----------------7---------------------------------------------
E-------------------------------------------------------------------


e-------------------------------------------------------------------
H----------------------6--------------------------------------------
G----5--7--7(9)--7(9)-----7--5--4--5~-------------------------------
D-5-----------------------------------------------------------------
A-------------------------------------------------------------------
E-------------------------------------------------------------------




(gitár 2)
e-------------------------------------------------------------------
H---------------------------13~13~----------------------------------
G-12----12-14~14~1212----12-----------------------------------------
D----14---------------14--------------------------------------------
A-------------------------------------------------------------------
E-------------------------------------------------------------------


e-----------------------13------------------------------------------
H----13-15-15(17)15(17)----15-13-12-13~-----------------------------
G-12----------------------------------------------------------------
D-------------------------------------------------------------------
A-------------------------------------------------------------------
E-------------------------------------------------------------------



(gitár 1)
e-------------------------------------------------------------------
H-------------------------------------------------------------------
G---------------------------5~-5~-----------------------------------
D-5-----5--7~-7~-5-5-----5------------------------------------------
A----7----------------7---------------------------------------------
E-------------------------------------------------------------------


e-------------------------------------------------------------------
H----------------------6--------------------------------------------
G----5--7--7(9)--7(9)-----7--5--4--5~-------------------------------
D-5-----------------------------------------------------------------
A-------------------------------------------------------------------
E-------------------------------------------------------------------



(gitár 2)
e-------------------------------------------------------------------
H---------------------------13~13~----------------------------------
G-12----12-14~14~1212----12-----------------------------------------
D----14---------------14--------------------------------------------
A-------------------------------------------------------------------
E-------------------------------------------------------------------


e-----------------------13------------------------------------------
H----13-15-15(17)15(17)----15-13-12-13~-----------------------------
G-12----------------------------------------------------------------
D-------------------------------------------------------------------
A-------------------------------------------------------------------
E-------------------------------------------------------------------



(gitár 1)
e-------------------------------------------------------------------
H-------------------------------------------------------------------
G------------------5--5--4------------------------------------------
D----------7~--7~-----------7---------------------------------------
A-7--7--7----------------------7~--7~-------------------------------
E-------------------------------------------------------------------


e-------------------------------------------------------------------
H-------------------------------------------------------------------
G-------------------------------------------------------------------
D-----------7~--7~--5--7--5-----------------------------------------
A-7--7--7--------------------8--7~----------------------------------
E-------------------------------------------------------------------


(gitár 2)
e-------------------------------------------------------------------
H------------------13-13-12-----------------------------------------
G----------14~-14~----------14--------------------------------------
D-14-14-14---------------------14~-14~------------------------------
A-------------------------------------------------------------------
E-------------------------------------------------------------------


e-------------------------------------------------------------------
H-------------------------------------------------------------------
G-----------14~-14~-12-14-12----------------------------------------
D-14-14-14-------------------15--14~--------------------------------
A-------------------------------------------------------------------
E-------------------------------------------------------------------



(gitár 1)
e-------------------------------------------------------------------
H-------------------------------------------------------------------
G---------------------------5~-5~-----------------------------------
D-5-----5--7~-7~-5-5-----5------------------------------------------
A----7----------------7---------------------------------------------
E-------------------------------------------------------------------


e-------------------------------------------------------------------
H----------------------6--------------------------------------------
G----5--7--7(9)--7(9)-----7--5--4--5~-------------------------------
D-5-----------------------------------------------------------------
A-------------------------------------------------------------------
E-------------------------------------------------------------------


(gitár 2)
e-------------------------------------------------------------------
H---------------------------13~13~----------------------------------
G-12----12-14~14~1212----12-----------------------------------------
D----14---------------14--------------------------------------------
A-------------------------------------------------------------------
E-------------------------------------------------------------------


e-----------------------13------------------------------------------
H----13-15-15(17)15(17)----15-13-12-13~-----------------------------
G-12----------------------------------------------------------------
D-------------------------------------------------------------------
A-------------------------------------------------------------------
E-------------------------------------------------------------------



akkordbontás
e--------0---------0--------0---------0-----------------------------
H---1---------1--------1---------1----------------------------------
G------2---------0--------2---------2-------------------------------
D-------------------------------------------------------------------
A-0---------3--------0---------0------------------------------------
E-------------------------------------------------------------------
  Am        C        Am        Am       


e-------0---------1---------0---------0-----------------------------
H--1---------1---------1---------1----------------------------------
G-----0---------2---------0---------0-------------------------------
D-----------3-------------------------------------------------------
A-3-------------------3---------3-----------------------------------
E-------------------------------------------------------------------
  C         F         C         C



e--------0---------0--------0---------0-----------------------------
H---1---------1--------1---------1----------------------------------
G------2---------0--------2---------2-------------------------------
D-------------------------------------------------------------------
A-0---------3--------0---------0------------------------------------
E-------------------------------------------------------------------
  Am        C        Am        Am      


e--------0---------1---------0--------------------------------------
H---1---------1---------1-------------------------------------------
G------0---------2---------0----------------------------------------
D-----------3-------------------------------------------------------
A-3-------------------3---------------------------------------------
E-------------------------------------------------------------------
  C         F         C        


Torzítós rész

e-------------------------------------------------------------------
H-------------------------------------------------------------------
G-------2---2---5---5-----------------2---2-----------5---5-------5-
D-2-2-2-2---2---5---5---2---2---2-2-2-2---2---5---5---5---5-------5-
A-2-2-2-0---0---3---3---2---2---2-2-2-0---0---5---5---3---3-------3-
E-0-0-0-----------------0---0---0-0-0---------3---3-----------------


e-------------------------------------------------------------------
H-------------------------------------------------------------------
G-2---2---5---5-----------------5---5---7---7---5---5---------------
D-2---2---5---5---3---3---3-3-3-5---5---7---7---5---5---------------
A-0---0---3---3---3---3---3-3-3-3---3---5---5---3---3---------------
E-----------------1---1---1-1-1-------------------------------------