20121115

KISTEHÉN TÁNCZENEKAR SZÁJBER GYEREK TAB


Cm G7 G7 Cm Cm B G# Fm G7


e---3---3---3---3---3---3---3---3---3---3---3---3---3---3---3---3---
H---4---4---4---4---3---3---3---3---3---3---3---3---4---4---4---4---
G---5---5---5---5---4---4---4---4---4---4---4---4---5---5---5---5---
D---5---5---5---5---3---3---3---3---3---3---3---3---5---5---5---5---
A---3---3---3---3---5---5---5---5---5---5---5---5---3---3---3---3---
E-------------------3---3---3---3---3---3---3---3-------------------


e---3---3---6---6---4---4---1---1---3---3---3---3---3---3---3---3---
H---4---4---6---6---4---4---1---1---3---3---3---3---3---3---3---3---
G---5---5---7---7---5---5---1---1---4---4---4---4---4---4---4---4---
D---5---5---8---8---6---6---3---3---3---3---3---3---3---3---3---3---
A---3---3---8---8---6---6---3---3---5---5---5---5---5---5---5---5---
E-----------6---6---4---4---1---1---3---3---3---3---3---3---3---3---