20121106

TÁTRAI TIBOR - SZŰCS ANTAL GÁBOR LATIN QUEEN TAB



INTRO

e--5---------------3----------------5------3-----5------------------
H--5---------------3----------------5------3-----5------------------
G--5---------------4----------------5------4-----5------------------
D--7---------------5----------------7------5-----7------------------
A--7---------------5----------------7------5-----7------------------
E--5---------------3----------------5------3-----5------------------

   Am              G                Am     G     Am


Verse

e--1--1---0--0---0--0---0--0---1--1---0--0---0--0-------------------
H--3--3---0--0---1--1---1--1---3--3---0--0---1--1-------------------
G--2--2---1--1---2--2---2--2---2--2---1--1---2--2-------------------
D--0--0---2--2---2--2---2--2---0--0---2--2---2--2-------------------
A--0--0---2--2---0--0---0--0---0--0---2--2---0--0-------------------
E---------0--0------------------------0--0--------------------------

   Dm Dm  E  E   Am Am  Am Am  Dm Dm  E  E   Am Am


Refr

e--3--3---0--0---3--3---0--0---0--0---0--0---3--1--0///-------------
H--3--3---1--1---3--3---1--0---0--0---1--1---3--1--0///-------------
G--4--4---0--0---4--4---0--1---1--1---2--2---4--2--1///-------------
D--5--5---2--2---5--5---2--2---2--2---2--2---5--3--2///-------------
A--5--5---3--3---5--5---3--2---2--2---0--0---5--3--2///-------------
E--3--3---3--3---3--3---3--0---0--0----------3--1--0///-------------

   G  G   C  C   G  G   C  E   E  E   Am Am  G  F  E



Szűcs Antal Gábor szólója alatt

e--5--5--3--5--5--5--3--5--1--1--0--0--1--1--0--0-------------------
H--5--5--3--5--5--5--3--5--1--1--0--0--1--1--0--0-------------------
G--5--5--4--5--5--5--4--5--2--2--1--1--2--2--1--1-------------------
D--7--7--5--7--7--7--5--7--3--3--2--2--3--3--2--2-------------------
A--7--7--5--7--7--7--5--7--3--3--2--2--3--3--2--2-------------------
E--5--5--3--5--5--5--3--5--1--1--0--0--1--1--0--0-------------------

   Am Am G  Am Am Am G  Am F  F  E  E  F  F  E  E



Tátrai szólója alatt


e--5--5--3--3--5--5--3--3--1--1--0--0--1--1--0--0-------------------
H--5--5--3--3--5--5--3--3--1--1--0--0--1--1--0--0-------------------
G--5--5--4--4--5--5--4--4--2--2--1--1--2--2--1--1-------------------
D--7--7--5--5--7--7--5--5--3--3--2--2--3--3--2--2-------------------
A--7--7--5--5--7--7--5--5--3--3--2--2--3--3--2--2-------------------
E--5--5--3--3--5--5--3--3--1--1--0--0--1--1--0--0-------------------

   Am Am G  G  Am Am G  G  F  F  E  E  F  F  E  E


Intro

e-12-12--12--10--8---12\---10-10--10--8---7--15151513-12-10---------
H-13-13--13--12--10--13\---12-12--12--10--8--17171715-13-12---------
G-------------------------------------------------------------------
D-------------------------------------------------------------------
A-------------------------------------------------------------------
E-------------------------------------------------------------------


e-12-12--12--10--8--10-10--10--8---7-8-\----------------------------
H-13-13--13--12--10-12-12--12--10--9-10\----------------------------
G-------------------------------------------------------------------
D-------------------------------------------------------------------
A-------------------------------------------------------------------
E-------------------------------------------------------------------


Verse

e-----7--8-8-8--7--------------------7-8-10-10--10--8-10-10/12~--12-
H--10------------10-------------------------------------------------
G-9-----------------9-9/10--7~--------------------------------------
D-------------------------------------------------------------------
A-------------------------------------------------------------------
E-------------------------------------------------------------------


e-----7--8--8-7-----------8-----10-8h10p8\7------/7--7-7------------
H--10-----------10--------------------------------------10-9-9/10~--
G-9----------------9-9/10-------------------------------------------
D-------------------------------------------------------------------
A-------------------------------------------------------------------
E-------------------------------------------------------------------


refr

e-/7--7-8-10\-8-7----/8--8--10--12/10--8-7--------------------------
H-------------------------------------------------------------------
G-/7--7-9-10\-9-7----/9--9--10--12/10--9-7--------------------------
D-------------------------------------------------------------------
A-------------------------------------------------------------------
E-------------------------------------------------------------------


e-/7--7-8-10\-8-7----/8--8--10--10/12-------------------------------
H-------------------------------------------------------------------
G-/7--7-9-10\-9-7----/9--9--10--10/12-------------------------------
D-------------------------------------------------------------------
A-------------------------------------------------------------------
E-------------------------------------------------------------------


e-/4--4-5--7--5-4-----5--5---7---8-----7-5--------------------------
H-------------------------------------------------------------------
G-/4--4-5--7--5-4-----5--5---7---8-----7-5--------------------------
D-------------------------------------------------------------------
A-------------------------------------------------------------------
E-------------------------------------------------------------------


e-3-------3-5-3---1--------1-3-1---0--------------------------------
H----------------------------------0--------------------------------
G----------------------------------1--------------------------------
D----------------------------------2--------------------------------
A-------------------------------------------------------------------
E-------------------------------------------------------------------