20121119

MAGNA CUM LAUDE PÁLINKA DAL TAB

Magna Cum Laude - Pálinka Dal akkordok és szóló.


MAGNA CUM LAUDE PÁLINKA DAL TAB

Intro / Verse / refr

e-3---------------3-------------------------------------------------
H-3---------------4--------3----------------------------------------
G-3---------------5--------5----------------------------------------
D-5---- 8x -------5-- 4x --4- 4x -----------------------------------
A-5---------------3--------5----------------------------------------
E-3-----------------------------------------------------------------


Bridge

e-3-------1-------1-------3-------3-------1-------1---0--2----------
H-4-------1-------3-------3-------4-------1-------3---2--1----------
G-5-------2-------3-------3-------5-------2-------3---0--2----------
D-5-------3-------3-------5-------5-------3-------3---2--0----------
A-3-------3-------1-------5-------3-------3-------1---0-------------
E---------1---------------3---------------1-------------------------


De nekem így is megérte....

e-3-------3---------------3---3-----3-------3-------0-------2-------
H-4-------3-------3-------3---3-----4-------3-------2-------1-------
G-5-------3-------5-------3---4-----5-------3-------0-------2-------
D-5-------5-------4-------5---3-----5-------5-------2-------0-------
A-3-------5-------5-------5---5-----3-------5-------0---------------
E---------3---------------3---3-------------3-----------------------


A gitár szóló

e-------------10.---9/10.----15-\-----10.---9/10.---------------8-\-
H-3.--2/3.----11.--10/11.----15-\-----11.--10/11.----8.--7/8.---8-\-
G-3.--2/3.----12.--11/12.----15-\-----12.--11/12.----7.--6/7.---8-\-
D-5.--4/5.-------------------------------------------8.--7/8.-------
A-------------------------------------------------------------------
E-------------------------------------------------------------------


e-3.--2/3.----8.--7/8.---------------11--11--8--8--5--5--3----------
H-4.--3/4.----8.--7/8.----13-\---x-x-10--10--7--7--4--4--3----------
G-5.--4/5.----8.--7/8.----12-\---x-x-11--11--8--8--5--5--3----------
D-------------------------13-\---x-x-10--10--7--7--4--4--5----------
A-------------------------------------------------------------------
E-------------------------------------------------------------------