20121119

MAGNA CUM LAUDE VIDÉKI SANZON TAB

A Vidéki Sanzon akkordok a következők:


MAGNA CUM LAUDE VIDÉKI SANZON TAB

Intro

e-3-------3-------0---------------3-------0-------1-----------------
H-3-------5-------1---------------3-------2-------3-----------------
G-3-------3-------2---------------3-------0-------2-----------------
D-3-------5-------3---------------2-------2-------0-----------------
A-5-------3-------3-----------------------0-------------------------
E-3-----------------------------------------------------------------


A szöveg alatt

e-3-3---3-3-3---0-0-0---0-0-0-0-0--3-3---0-0-0---1-1-1---1-1-1-1-1--
H-3-3-x-5-5-5-x-1-1-1-x-1-1-1-1-1--3-3-x-2-2-2-x-3-3-3-x-3-3-3-3-3--
G-3-3-x-3-3-3-x-2-2-2-x-2-2-2-2-2--3-3-x-0-0-0-x-2-2-2-x-2-2-2-2-2--
D-3-3-x-5-5-5-x-3-3-3-x-3-3-3-3-3--2-2-x-2-2-2-x-0-0-0-x-0-0-0-0-0--
A-5-5---3-3-3---3-3-3---3-3-3-3-3--------0-0-0----------------------
E-3-3---------------------------------------------------------------



A pengetés: le-föl le(x)  föl-le-föl le(x)  föl-le-föl le(x)  föl-le-föl-le-föl
                     le-föl le(x)  föl-le-föl le(x)  föl-le-föl le(x)  föl-le-föl-le-föl