20121107

OCHO MACHO JÓ NEKEM TAB

Egy akkordmenet megy végig, 1:15-nél van egy kis díszítés, ami okozhat némi fejtörést.


OCHO MACHO JÓ NEKEM TAB


e---------0---------------0---------------3---------------2---------
H-------0---0-----------1---1-----------0---0---0-------3---3-------
G-----0-------0-------0-------0-------0-------0-------2-------2-----
D---------------2---------------2-----------------0-------------0---
A-----------------3-------------------------------------------------
E-0-------------------------------3---------------------------------


e---------0---------------0---------------3---------------2---------
H-------0---0-----------1---1-----------0---0---0-------3---3-------
G-----0-------0-------0-------0-------0-------0-------2-------2-----
D---2-----------2---------------2-----------------0-------------0---
A-----------------3-------------------------------------------------
E-0-------------------------------3---------------------------------


  1:15-nél

e---------7----------------8h10p8-----------------------------------
H-------8---8----------8----------8h10p8\---------------------------
G-----9-------9----------9------------------------------------------
D---9-------------10------------------------------------------------
A-7-----------------------------------------------------------------
E-------------------------------------------------------------------


e---------3h5p3------------------10h12p10---------------------------
H-----3--------------------10---------------------------------------
G-------4---------------------11------------------------------------
D-5-------------5/---12-------------------12\-----------------------
A-------------------------------------------------------------------
E-------------------------------------------------------------------


e---------7----------------8h10p8-----------------------------------
H-------8---8----------8----------8h10p8\---------------------------
G-----9-------9----------9------------------------------------------
D---9-------------10------------------------------------------------
A-7-----------------------------------------------------------------
E-------------------------------------------------------------------


e---------3h5p3------------------10h12p10---------------------------
H-----3--------------------10---------------------------------------
G-------4---------------------11------------------------------------
D-5-------------5/---12-------------------12\-----------------------
A-------------------------------------------------------------------
E-------------------------------------------------------------------