20121112

OSSIAN TÖBBET ÉR MINDENNÉL TAB (INTRO)



(Half step down tuning)

 
eb-1----------3---1---0-------1----------3---1---0------------------
Hb-3---------3------------3.--3---------3------------3.-------------
Gb-2--------2-----------------2--------2----------------------------
Db-0--------------------------0-------------------------------------
Ab------------------------------------------------------------------
Eb------------------------------------------------------------------


eb-0----------------------------------0-------------------0---------
Hb-1----------3---1---0-----------1-----------0---3-----------------
Gb-2---------2------------0---2-----------0-----------0-------------
Db-2--------2-------------------------------------------------------
Ab-0----------------------------------------------------------------
Eb------------------------------------------------------------------


eb-1----------3---1---0-------1----------3---1---0------------------
Hb-3---------3------------3.--3---------3------------3.-------------
Gb-2--------2-----------------2--------2----------------------------
Db-0--------------------------0-------------------------------------
Ab------------------------------------------------------------------
Eb------------------------------------------------------------------


eb-0--------------------------3-------------------------------------
Hb-1----------3---1---0-------0-------------------------------------
Gb-2---------2------------2---0-------------------------------------
Db-2--------2-----------------0-------------------------------------
Ab-0--------------------------2-------------------------------------
Eb----------------------------3-------------------------------------