20121106

P BOX VÁGTASS VELEM TAB



intro

e-------------------------------------------------------------------
H----------------------------------------------10--------8-10-------
G-------------------------10-9-------------------9-----9------------
D---------9-10-------9-10----------------9-10-----9-10--------------
A-12--12--------12---------------12--12-----------------------------
E-------------------------------------------------------------------


e-------------------------------------------------------------------
H----------------------------------------------10--------8-10-------
G-------------------------10-9-------------------9-----9------------
D---------9-10-------9-10----------------9-10-----9-10--------------
A-12--12--------12---------------12--12-----------------------------
E-------------------------------------------------------------------



Verse

e-------------------------------------------------------------------
H-------------------------------------------------------------------
G-------------------------------------------------------------------
D-14-14-14-14-14-14-14-14-14-14-14-14-14-14-14-14-------------------
A-12-12-12-12-12-12-12-12-12-12-12-12-12-12-12-12-------------------
E-------------------------------------------------------------------
  x  x  x  x  x  x  x  x  x  x  x  x  x  x  x  x 

e-------------------------------------------------------------------
H-------------------------------------------------------------------
G-------------------------------------------------------------------
D-14-14-14-14-14-14-14---10-10-10/12-12-12--------------------------
A-12-12-12-12-12-12-12---8--8--8-/10-10-10--------------------------
E-------------------------------------------------------------------
  x  x  x  x  x  x  x 



bridge

e-------------------------------------------------------------------
H-------------------------------------------------------------------
G-------------------------------------------------------------------
D------------------------7--9---5--7---3--5-------------------------
A-8--10---7--8---5--7-----------------------------------------------
E-------------------------------------------------------------------


Refr

e-------------------------------------------------------------------
H-------------------------------------------------------------------
G-------------------------------------------------------------------
D-----------------------------2h3-----------------------------------
A-------------------------------------------------------------------
E-0-0-0-0-0-0-0-0-0-0-0-0-0-0---------------------------------------
  x x x x x x x x x x x x x x
 

e-------------------------------------------------------------------
H-------------------------------------------------------------------
G-------------------------------------------------------------------
D-2---------------------------3h5-----------------------------------
A-------------------------------------------------------------------
E---0-0-0-0-0-0-0-0-0-0-0-0-0---------------------------------------
    x x x x x x x x x x x x x

e-------------------------------------------------------------------
H-------------------------------------------------------------------
G-------------------------------------------------------------------
D-2---------------------------2h3-----------------------------------
A-------------------------------------------------------------------
E---0-0-0-0-0-0-0-0-0-0-0-0-0---------------------------------------
    x x x x x x x x x x x x x

e-------------------------------------------------------------------
H-------------------------------------------------------------------
G-------------------------------------------------------------------
D-2-------------------2--3--5---------------------------------------
A-------------------------------------------------------------------
E---0-0-0-0-0-0-0-0-0-----------------------------------------------
    x x x x x x x x x