20121106

PIRAMIS CSAK RÖVID IDŐ TAB (MAIN RIFF)



e-------------------------------------------------------------------
H-------------------------------------------------------------------
G-------------------------------------------------------------------
D---2---p1p0-----------------------------------------2-0h1h2--------
A-----------2p1p0--------1'------3p2-3p2-1'-----2------------2------
E-0---------------3'---0------------------------0------------0------
  x                    x         


e-------------------------------------------------------------------
H-------------------------------------------------------------------
G-------------------------------------------------------------------
D---2---p1p0-----------------------------------------2-0h1h2--------
A-----------2p1p0--------1'------3p2-3p2-1'-----2------------2------
E-0---------------3'---0------------------------0------------0------
  x                    x         


e-------------------------------------------------------------------
H-------------------------------------------------------------------
G-------------------------------------------------------------------
D-9---x-x-x-x-x-x-x-x-x-x-9-9-9-9--7/9-x-x-x-x-x-x-x-x-x-x-7-x-7-x--
A-7---x-x-x-x-x-x-x-x-x-x-7-7-7-7--5/7-x-x-x-x-x-x-x-x-x-x-5-x-5-x--
E-------------------------------------------------------------------


e-------------------------------------------------------------------
H-------------------------------------------------------------------
G-------------------------------------------------------------------
D-7/9-x-x-x-x-x-x-x-x-x-x-7-x-7-x---7/9-x-x-x-x-x-x-x-x-9-9-9-\-----
A-5/7-x-x-x-x-x-x-x-x-x-x-5-x-5-x---5/7-x-x-x-x-x-x-x-x-7-7-7-\-----
E-------------------------------------------------------------------


e-------------------------------------------------------------------
H-------------------------------------------------------------------
G-------------------------------------------------------------------
D-2---p1p0------2---p1p0------2---p1p0------------------------------
A---------2p1p0---------2p1p0---------2p1p0-2-----------------------
E-------------------------------------------0-----------------------