20121106

SUPERNEM ZSEBRE DUGOTT KÉZZEL TAB


intro

e-------------------------------------------------------------------
H-3---3------3.---3---3------3.---3---3------3.---3---3------3.-----
G-3---3-5.---3.-5-3---3-5.---3.-5-3---3-5.---3.-5-3---3-5.---3.-5---
D-3---3-3.---3.-3-3---3-3.---3.-3-3---3-3.---3.-3-3---3-3.---3.-3---
A-------------------------------------------------------------------
E-------------------------------------------------------------------


e-------------------------------------------------------------------
H-3---3------3.---3---3------3.---3---3------3.---3---3------3.-----
G-3---3-5.---3.-5-3---3-5.---3.-5-3---3-5.---3.-5-3---3-5.---3.-5---
D-3---3-3.---3.-3-3---3-3.---3.-3-3---3-3.---3.-3-3---3-3.---3.-3---
A-------------------------------------------------------------------
E-------------------------------------------------------------------


e-------------------------------------------------------------------
H-3---3------3.---3---3------3.---3---3------3.---3---3------3-3----
G-3---3-5.---3.-5-3---3-5.---3.-5-3---3-5.---3.-5-3---3-5.---3-3-5--
D-3---3-3.---3.-3-3---3-3.---3.-3-3---3-3.---3.-3-3---3-3.---3-3-3--
A-------------------------------------------------------------------
E-------------------------------------------------------------------


Verse

e-------------------------------------------------------------------
H-------------------------------------------------------------------
G-------------------------------------------------------------------
D-8-8-8-8-8-8-8-8-8-8-8-8-8-8-8-8-10101010101010101010101010101010--
A-8-8-8-8-8-8-8-8-8-8-8-8-8-8-8-8-8-8-8-8-8-8-8-8-8-8-8-8-8-8-8-8---
E-6-6-6-6-6-6-6-6-6-6-6-6-6-6-6-6-8-8-8-8-8-8-8-8-8-8-8-8-8-8-8-8---
  x x x x x x x x x x x x x x x x x x x x x x x x x x x x x x x x 

e-------------------------------------------------------------------
H-------------------------------------------------------------------
G----------------------------------8-8-8-8-8-8-8-8-8-8-8-8-8-8-8-8--
D-10101010101010101010101010101010-8-8-8-8-8-8-8-8-8-8-8-8-8-8-8-8--
A-8-8-8-8-8-8-8-8-8-8-8-8-8-8-8-8--6-6-6-6-6-6-6-6-6-6-6-6-6-6-6-6--
E-10101010101010101010101010101010----------------------------------
  x x x x x x x x x x x x x x x x  x x x x x x x x x x x x x x x x


e-------------------------------------------------------------------
H-3---3------3.---3---3------3.---3---3------3.---3---3------3.-----
G-3---3-5.---3.-5-3---3-5.---3.-5-3---3-5.---3.-5-3---3-5.---3.-5---
D-3---3-3.---3.-3-3---3-3.---3.-3-3---3-3.---3.-3-3---3-3.---3.-3---
A-------------------------------------------------------------------
E-------------------------------------------------------------------


e-------------------------------------------------------------------
H-3---3------3.---3---3------3.---3---3------3.---4-----------------
G-3---3-5.---3.-5-3---3-5.---3.-5-3---3-5.---3.-5-3-----------------
D-3---3-3.---3.-3-3---3-3.---3.-3-3---3-3.---3.-3-3-----------------
A-------------------------------------------------------------------
E-------------------------------------------------------------------


Refr

e-------------------------------------------------------------------
H-------------------------------------------------------------------
G-3.------------------------------5---5-5-5-5-5-5-5-5-5-5-5-5-5-5---
D-3.------------------------------5---5-5-5-5-5-5-5-5-5-5-5-5-5-5---
A-1.------------------------------3---3-3-3-3-3-3-3-3-3-3-3-3-3-3---
E-------------------------------------------------------------------
                                      x x x x x x x x x x x x x x

e-------------------------------------------------------------------
H-------------------------------------------------------------------
G-8---8-8-8-8-8-8---8---8-8-8-8-8-8---8---8-8-8-8-8-8---8---8-8-8---
D-8---8-8-8-8-8-8---8---8-8-8-8-8-8---8---8-8-8-8-8-8---8---8-8-8---
A-6---6-6-6-6-6-6---6---6-6-6-6-6-6---6---6-6-6-6-6-6---6---6-6-6---
E-------------------------------------------------------------------
      x x x x x         x x x x x         x x x x x         x x x

e-------------------------------------------------------------------
H-------------------------------------------------------------------
G-3---3-3-3-3-3-3-3-3-3-3-3-3-3-3-5---5-5-5-5-5-5-5-5-5-5-5-5-5-5---
D-3---3-3-3-3-3-3-3-3-3-3-3-3-3-3-5---5-5-5-5-5-5-5-5-5-5-5-5-5-5---
A-1---1-1-1-1-1-1-1-1-1-1-1-1-1-1-3---3-3-3-3-3-3-3-3-3-3-3-3-3-3---
E-------------------------------------------------------------------
      x x x x x x x x x x x x x x     x x x x x x x x x x x x x x

e-------------------------------------------------------------------
H-------------------------------------------------------------------
G-8---8-8-8-8-8-8---8---8-8-8-8-8-8---8---8-8-8-8-8-8---8---8-------
D-8---8-8-8-8-8-8---8---8-8-8-8-8-8---8---8-8-8-8-8-8---8---8-------
A-6---6-6-6-6-6-6---6---6-6-6-6-6-6---6---6-6-6-6-6-6---6---6-------
E-------------------------------------------------------------------
      x x x x x         x x x x x         x x x x x         


Refr 2

e-------------------------------------------------------------------
H-------------------------------------------------------------------
G-3.------------------------------5---5-5-5-5-5-5-5-5-5-5-5-5-5-5---
D-3.------------------------------5---5-5-5-5-5-5-5-5-5-5-5-5-5-5---
A-1.------------------------------3---3-3-3-3-3-3-3-3-3-3-3-3-3-3---
E-------------------------------------------------------------------
                                      x x x x x x x x x x x x x x

e-------------------------------------------------------------------
H-------------------------------------------------------------------
G-8---8-8-8-8-8-8---8---8-8-8-8-8-8---8---8-8-8-8-8-8---8---8-8-8---
D-8---8-8-8-8-8-8---8---8-8-8-8-8-8---8---8-8-8-8-8-8---8---8-8-8---
A-6---6-6-6-6-6-6---6---6-6-6-6-6-6---6---6-6-6-6-6-6---6---6-6-6---
E-------------------------------------------------------------------
      x x x x x         x x x x x         x x x x x         x x x

e-------------------------------------------------------------------
H-------------------------------------------------------------------
G-3---3-3-3-3-3-3-3-3-3-3-3-3-3-3-5---5-5-5-5-5-5-5-5-5-5-5-5-5-5---
D-3---3-3-3-3-3-3-3-3-3-3-3-3-3-3-5---5-5-5-5-5-5-5-5-5-5-5-5-5-5---
A-1---1-1-1-1-1-1-1-1-1-1-1-1-1-1-3---3-3-3-3-3-3-3-3-3-3-3-3-3-3---
E-------------------------------------------------------------------
      x x x x x x x x x x x x x x     x x x x x x x x x x x x x x

e-------------------------------------------------------------------
H-------------------------------------------------------------------
G-8---8-8-8-8-8-8---8---8-8-8-8-8-8---8---8-8-8-8-8-8---8---8-------
D-8---8-8-8-8-8-8---8---8-8-8-8-8-8---8---8-8-8-8-8-8---8---8-------
A-6---6-6-6-6-6-6---6---6-6-6-6-6-6---6---6-6-6-6-6-6---6---6-------
E-------------------------------------------------------------------
      x x x x x         x x x x x         x x x x x         


e-------------------------------------------------------------------
H-------------------------------------------------------------------
G---------------------------------5---5---5-5-5-5---5-5-5---5-5-5---
D-5---5---5-5-5-5---5-5-5---5-5-5-5---5---5-5-5-5---5-5-5---5-5-5---
A-5---5---5-5-5-5---5-5-5---5-5-5-3---3---3-3-3-3---3-3-3---3-3-3---
E-3---3---3-3-3-3---3-3-3---3-3-3-----------------------------------


e-------------------------------------------------------------------
H-------------------------------------------------------------------
G-8---8---8-8-8-8---8-8-8---8-8-8-8---8---8-8-8-8---8-8-8---8-8-8---
D-8---8---8-8-8-8---8-8-8---8-8-8-8---8---8-8-8-8---8-8-8---8-8-8---
A-6---6---6-6-6-6---6-6-6---6-6-6-6---6---6-6-6-6---6-6-6---6-6-6---
E-------------------------------------------------------------------


e-------------------------------------------------------------------
H-------------------------------------------------------------------
G-------------------------------------------------------------------
D-5---5---5-5-5-5---5-5-5---5-5-5-8---8---8-8-8-8---8-8-8---8-8-8---
A-5---5---5-5-5-5---5-5-5---5-5-5-7---7---7-7-7-7---7-7-7---7-7-7---
E-3---3---3-3-3-3---3-3-3---3-3-3-----------------------------------


e-------------------------------------------------------------------
H-------------------------------------------------------------------
G-8---8---8-8-8-8---8-8-8---8-8-8-8---8---8-8-8-8---8-8-8---8-8-8---
D-8---8---8-8-8-8---8-8-8---8-8-8-8---8---8-8-8-8---8-8-8---8-8-8---
A-6---6---6-6-6-6---6-6-6---6-6-6-6---6---6-6-6-6---6-6-6---6-6-6---
E-------------------------------------------------------------------


refr 2 után

e-------------------------------------------------------------------
H-------------------------------------------------------------------
G---------------8---8-x-10--10x-x---------------8---8-x-10--10x-x---
D-8---8---8-8-8-8---8-x-10--10x-x-5---5---5-5-5-8---8-x-10--10x-x---
A-8---8---8-8-8-6---6-x-8---8-x-x-5---5---5-5-5-6---6-x-8---8-x-x---
E-6---6---6-6-6-------------------3---3---3-3-3---------------------


e-------------------------------------------------------------------
H-------------------------------------------------------------------
G---------------8---8-x-10--10x-x---------------8---8-x-10--10x-x---
D-8---8---8-8-8-8---8-x-10--10x-x-5---5---5-5-5-8---8-x-10--10x-x---
A-8---8---8-8-8-6---6-x-8---8-x-x-5---5---5-5-5-6---6-x-8---8-x-x---
E-6---6---6-6-6-------------------3---3---3-3-3---------------------



e-------------------------------------------------------------------
H-------------------------------------------------------------------
G----------------------------------8---8-8-8-8-8-8---10--10--10-----
D-10--1010101010101010101010101010-8---8-8-8-8-8-8-x-10x-10x-10-----
A-10--1010101010101010101010101010-6---6-6-6-6-6-6-x-8-x-8-x-8------
E-8---8-8-8-8-8-8-8-8-8-8-8-8-8-8-----------------------------------
          x x x x x x x x x x x x

innen meg az intro + verse