20121106

TÁTRAI - SZŰCS BÚCSÚ TAB



verse

e-0---2---3---0---2-------0-------0-------0-------2-------0---------
H-1---1---0---0---0-------0-------1-------0-------0-------0---------
G-2---2---0---0---2-------0-------2-------0-------2-------0---------
D-2---0---0---2---1-------2-------2-------2-------1-------2---------
A-0-------2---2---2-------2-------0-------2-------2-------2---------
E---------3---0-----------0---------------0---------------0---------


Bridge                              Refr / Solo1 / solo2

e-2---3---2---0---------------------0---0---2---0-------------------
H-1---0---0---0---------------------1---0---0---0-------------------
G-2---0---2---0---------------------2---0---2---0-------------------
D-0---0---1---2------------ 4x -----2---2---1---2----- 4x ----------
A-----2---2---2---------------------0---2---2---2-------------------
E-----3-------0-------------------------0-------0-------------------


Verse

e----------15-14---------------------------14-12h14p12--------------
H-12-11-12---------12-12h13---13---10-9-10-------------10-10/12---12
G-------------------------------------------------------------------
D-------------------------------------------------------------------
A-------------------------------------------------------------------
E-------------------------------------------------------------------


e-------7-6h7p6-------------------------7-6-5-----------------------
H-8-7-8-----------5-5/7---7-------7-6-7-------8---------------------
G-------------------------------------------------------------------
D-------------------------------------------------------------------
A-------------------------------------------------------------------
E-------------------------------------------------------------------


e----------15-14---------------------------14-12h14p12--------------
H-12-11-12---------12-12h13---13---10-9-10-------------10-8h10p8----
G-------------------------------------------------------------------
D-------------------------------------------------------------------
A-------------------------------------------------------------------
E-------------------------------------------------------------------


e-------7-6h7p6-----------------------------------------------------
H-8-7-8-----------5-5/7---7-------7-6-7-8-7-4-4h5-------------------
G-------------------------------------------------------------------
D-------------------------------------------------------------------
A-------------------------------------------------------------------
E-------------------------------------------------------------------


Bridge

e-------------------------------------------------------------------
H-------------------------------------------------------------------
G-9-9-8-7-------7-7-5-4-------/4---4-4h5p4p2-0h2---0h2--------------
D------------------------------------------------------5-4h5p4p2-0--
A-------------------------------------------------------------------
E-------------------------------------------------------------------


e-------------------------------------------------------------------
H-----------------------------4---4-5-------8-7---5h7p5-------------
G-7-7-5h7p5-4-------4---4---4---4-----------------------7-----------
D-------------------------------------------------------------------
A-------------------------------------------------------------------
E-------------------------------------------------------------------


e-------------------------------------------------------------------
H-5-----------------------------------------------------------------
G-----7.--5-4-----------------/4---4-4h5p4p2-0h2---0h2--------------
D------------------------------------------------------5-4h5p4p2-0--
A-------------------------------------------------------------------
E-------------------------------------------------------------------


e-------------------------------------------------------------------
H---------------------------------7-4-5-----------------------------
G-7-7-5-4------------/4---4---4-4-----------------------------------
D-------------------------------------------------------------------
A-------------------------------------------------------------------
E-------------------------------------------------------------------


Refr

e---5-7-8-8-8-8-8/10-8-7h8p7---5h7p5---3h5p3------------------------
H--5----------------------------------------------------------------
G-5-----------------------------------------------------------------
D-------------------------------------------------------------------
A-------------------------------------------------------------------
E-------------------------------------------------------------------


e-3/5---5---5-3---5-5/7---5h7p5-3-----------------------------------
H-------------------------------------------------------------------
G-------------------------------------------------------------------
D-------------------------------------------------------------------
A-------------------------------------------------------------------
E-------------------------------------------------------------------


e---5-7-8-8-8-8-8/10---8-7---8/12-------11---11---11-11---11-12-----
H--5----------------------------------------------------------------
G-5-----------------------------------------------------------------
D-------------------------------------------------------------------
A-------------------------------------------------------------------
E-------------------------------------------------------------------


Solo1

e-5-7-8---8---8-8/10--\8-8---7--\5---5/7--------5-------------------
H---------------------------------------------8---8---7---5-5---4-5-
G-------------------------------------------------------------------
D-------------------------------------------------------------------
A-------------------------------------------------------------------
E-------------------------------------------------------------------


e---5-7-8---8---8-8/10--\8-7---8/12-------11-12/14---12-11/12-------
H-5-----------------------------------------------------------------
G-------------------------------------------------------------------
D-------------------------------------------------------------------
A-------------------------------------------------------------------
E-------------------------------------------------------------------


e---12-10---8h10p8----10-8\7------------8\7---7---------------------
H------------------12--------10p8-10/12---------10-8p7---7----------
G-9----------------------------------------------------9---9-8---9--
D-------------------------------------------------------------------
A-------------------------------------------------------------------
E-------------------------------------------------------------------


e-------------------------------------------------------------------
H-------------------------8----7------------------------------------
G-------------------7-9------------9---9------9-8---8-9---9/11-9----
D----------7---9-10-------------------------------------------------
A-7-9-10------------------------------------------------------------
E-------------------------------------------------------------------


Solo 2

e---12-10---8h10p8-7---8p7----7-------------------------------------
H--------------------------10---8/10------8-7---7-------------------
G-9-------------------------------------------9---9-8---9-----------
D-------------------------------------------------------------------
A-------------------------------------------------------------------
E-------------------------------------------------------------------


e----12-14-15---15-15---14---14---12--------11-12---12/14-12--------
H-12----------------------------------------------------------------
G-------------------------------------------------------------------
D-------------------------------------------------------------------
A-------------------------------------------------------------------
E-------------------------------------------------------------------


e-------10-8-12-10---8h10p8-7-10-8p7--------------------------------
H---7-8------------------------------10-8-10/12---------------------
G-9-----------------------------------------------------------------
D-------------------------------------------------------------------
A-------------------------------------------------------------------
E-------------------------------------------------------------------


e-8p7----7----------------------------------------------------------
H-----10---10-8p7---------------------------------------------------
G-----------------9-8-9---------------------------------------------
D-------------------------------------------------------------------
A-------------------------------------------------------------------
E-------------------------------------------------------------------


e-------------------------------------------------------------------
H-------------------------7---7h8--------8-8p7----------------------
G-----------------------7---9--------------------9-8-9--------------
D---------7-9-10-7-9-10---------------------------------------------
A-10p9-10-----------------------------------------------------------
E-------------------------------------------------------------------