20121113

ZÖLD A BÍBOR ÉS A FEKETE TAB


Intro

e-----2-------------2-------------3-------------3-------------------
B-------2-------------2-------------3-------------3-----------------
G-------------------------------------------------------------------
D---4-------------4-----------------------------------------  2x  --
A-2-------------2---------------2-------------2---------------------
E-----------------------------3-------------3-----------------------


Verse

e-----2-------------2-----------3---------0-------2-----------------
B-------2-------------2-----------3---------2-------2---------------
G-------------------------------------------------------------------
D---4-------------4---------------------2-------4-----------  4x  --
A-2-------------2---------------------0-------2---------------------
E-----------------------------3-------------------------------------


Bridge

e-------------------------------------------------------------------
B-------------------------------------------------------------------
G-------------------------------------------------------------------
D-----------7.----------------------------------------------  4x  --
A-9-7-9.----5.--4-5.--5-7-------------------------------------------
E-7-5-7.--------2-3.--3-5-------------------------------------------


Refr

e-------------------------------------------------------------------
B-------------------------------------------------------------------
G-------------------------------------------------------------------
D-7-----------------------------------------------7-----------------
A-5-------5-------9-----7---------9-7-9.----5.--5-5-----7-----------
E---------3-------7-----5---------7-5-7.----3.--3-------5-----------


e-------------------------------------------------------------------
B-------------------------------------------------------------------
G-------------------------------------------------------------------
D-7-----------------------------------------------------------------
A-5-------5-------9-------7-------5-5-5-5-5-5-5-5-7-7-7-7-7-7-7-7---
E---------3-------7-------5-------3-3-3-3-3-3-3-3-5-5-5-5-5-5-5-5---


Solo 1

e-------------------------------------------------------------------
B---7~~~~--\--------------------------------------------------------
G------------------9(11)(9)p7---9---(11).---------------------------
D----------------------------9--------------------------------------
A-------------------------------------------------------------------
E-------------------------------------------------------------------


e---------10-9------------------------------------------------------
B------12--------10---12~~~---\-------------------------------------
G---11--------------------------------------------------------------
D-------------------------------------------------------------------
A-------------------------------------------------------------------
E-------------------------------------------------------------------


e-------------------------------------------------------------------
B---10---------------------------7.---------------------------------
G---9---(11).-----7'-------------7.---------------------------------
D----------------------9---9p7-------9~-----------------------------
A-----------------------------9-------------------------------------
E-------------------------------------------------------------------


e-------------------------------------------------------------------
B----------------------7-----------7.-------------------------------
G---9(11)---9~---7h9p7-7--9-9p7--------9~---------------------------
D---------------------9---------9-----------------------------------
A-------------------------------------------------------------------
E-------------------------------------------------------------------


e-------------------------------------------------------------------
B-------------------------------------------------------------------
G---7---(9).--------------------------------------------------------
D-------------------------------------------------------------------
A-------------------------------------------------------------------
E-------------------------------------------------------------------


SZÓLÓ 1 + SZÓLÓ 2 GP6 + PDF >>