20140331

HORVÁTH CHARLIE MINDENKI VALAKIÉ TAB (SZÓLÓ)



e-----------------------------------------------------------------------
B-----------------------------------------------------------------------
G-14(16)---14(16)(14)p12-14-p-12----12.--12-----------------------------
D--------------------------------14---------14----12.--14~--------------
A----------------------------------------------14-----------------------
E-----------------------------------------------------------------------


e-----------------------------------------------------------------------
B----------------------------------15/17~-------------------------------
G-14(16)---(16)-(14)p12-14-p-12-----------------------------------------
D-------------------------------14--------------------------------------
A-----------------------------------------------------------------------
E-----------------------------------------------------------------------


e-17(19)---17(19)---17(19)(17)p15---------------------------------------
B---------------------------------17~-----------------------------------
G-----------------------------------------------------------------------
D-----------------------------------------------------------------------
A-----------------------------------------------------------------------
E-----------------------------------------------------------------------


e-----------------------------------------------------------------------
B-----------------------------------------------------------------------
G-14-12.--(16)-(14)p12--------------------------------------------------
D----------------------14~---------------12-----------------------------
A------------------------------------------12(14)-(12)p10-12(14)~-------
E-----------------------------------------------------------------------



e-----------------------------------------------------------------------
B------------------------------------------------------12-15p12.--------
G----------------------------------------------11/12-14-----------------
D---------------------12--14p12-----------12-14-------------------------
A------10-12--10-12/14--14-----14-12-14-15------------------------------
E-10-12-----12----------------------------------------------------------


e-----------------------------------------------------------------------
B-12.--15(17)(15)p12----------------------------------------------------
G--------------------12-------------------------------------------------
D-----------------------14~---------------------------------------------
A-----------------------------------------------------------------------
E-----------------------------------------------------------------------


e-14(15)-14(15)-14(15)-14(15)(14)p12--------12.-------------------------
B------------------------------------15(17)-------15(17)(15)p12---------
G---------------------------------------------------------------12------
D------------------------------------------------------------------14~--
A-----------------------------------------------------------------------
E-----------------------------------------------------------------------


e-----------------------------------------------------------------------
B-----------------------------------------------------------------------
G-------12.--14.--15(16)------12-14.--16.-------------------------------
D-14-14------------------14.---------------14~--------------------------
A-----------------------------------------------------------------------
E-----------------------------------------------------------------------


e---------------------------------------------15.--17.--17(19)----------
B-------------------17p15-------------15-17.----------------------------
G-12.--14.--15/16.--------16p14-15-16-----------------------------------
D-----------------------------------------------------------------------
A-----------------------------------------------------------------------
E-----------------------------------------------------------------------


e-17p15-17~------------15.--15-15p12------------------------------------
B-----------------------------------12-----------------12.--------------
G-------------------------------------12---14-12-------12.--------------
D---------------------------------------14-------14-12------14~---------
A-----------------------------------------------------------------------
E-----------------------------------------------------------------------