20140412

BYEALEX AZ ÉN RÓZSÁM TAB

A billentyű és a hegedű szólam gitáron ...



BYEALEX AZ ÉN RÓZSÁM TAB

(6/8) Capo on the 2nd

e-------0-----------------------0---------------------------------------
H-------1-----------------------1---------------------------------------
G-------2-----------------------0---------------------------------------
D-------2-----------------------2---------------------------------------
A-0-----------------------3---------------------------------------------
E-----------------------------------------------------------------------


e-------------------------------0---------------------------------------
H-------3-----------------------1---------------------------------------
G-------0-----------------------2---------------------------------------
D-------0-----------------------2---------------------------------------
A-------2-----------------0---------------------------------------------
E-3---------------------------------------------------------------------


Gyors rész (zongora)

e-----------0-5-7-8-7-5-0---------------8-10-12-10-8--------------------
H-------0-1---------------------------8--------------8------------------
G-----2-----------------------------9-----------------------------------
D---2-------------------------10-12-------------------------------------
A-0-------------------------10------------------------------------------
E-------------------------8---------------------------------------------



e-------------3-5-7-5-3-------------0-5-7-8-17--------------------------
H-----------3-----------3-------0-1-------------------------------------
G---------4-------------------2-----------------------------------------
D-----5-7-------------------2-------------------------------------------
A---5---------------------0---------------------------------------------
E-3---------------------------------------------------------------------


Hegedű szóló

e-------------------------------------------3---------------------------
H-----5-5-5---5--p3-5--p3-----5-5-5---5--p3-----------------------------
G-2-----------------------5---------------------------------------------
D-----------------------------------------------------------------------
A-----------------------------------------------------------------------
E-----------------------------------------------------------------------


e-----------------------------------------------------------------------
H-----5-5-5---5--p3-5--p3-----------------------------------------------
G-0-----------------------5---4-2-0---2---------------------------------
D-----------------------------------------------------------------------
A-----------------------------------------------------------------------
E-----------------------------------------------------------------------