20140804

EDDA ÁLOM TAB



EDDA ÁLOM TAB


#1

e-----------------------------------------------------------------------
B-----------------------------------------------------------------------
G-------5.----5.--------3---3.------------5.----5.--------3---3.--------
D---------------------5---5-----------------------------5---5-----------
A-3.--------------------------------3.----------------------------------
E-----------------------------------------------------------------------


e-----------------------------------------------------------------------
B-----------------------------------------------------------------------
G-------5.----5.--------3---3.------------5.----5.--------3---3.--------
D---------------------5---5-----------------------------5---5-----------
A-3.--------------------------------3.----------------------------------
E-----------------------------------------------------------------------


#2

e-----------------------------------------------------------------------
B-----------------------------------------------------------------------
G-----------------------------------------------------------------------
D-5.----5.----5---\-----------------5.----5.----5---\-------------------
A-3.----3.----3---\-----1---1.------3.----3.----3---\-----1---1.--------
E---------------------3---3-----------------------------3---3-----------



e-----------------------------------------------------------------------
B-----------------------------------------------------------------------
G-----------------------------------------------------------------------
D-5.----5.----5---\-----------------5.----5.----5---\-------------------
A-3.----3.----3---\-----1---1.------3.----3.----3---\-----1---1.--------
E---------------------3---3-----------------------------3---3-----------


e-----------------------------------------------------------------------
B-----------------------------------------------------------------------
G-----------------------------------------------------------------------
D-5.----5.----5---\-----------------5.----5.----5---\-------------------
A-3.----3.----3---\-----1---1.------3.----3.----3---\-----1---1.--------
E---------------------3---3-----------------------------3---3-----------


e-----------------------------------------------------------------------
B-----------------------------------------------------------------------
G-----------------------------------------------------------------------
D-5.----5.----5---\-----------------5.----5.----5---\-------------------
A-3.----3.----3---\-----1---1.------3.----3.----3---\-----1---1.--------
E---------------------3---3-----------------------------3---3-----------


#3

e-----------------------------------------------------------------------
B-----------------------------------------------------------------------
G-----------------------------------------------------------------------
D-----------------------------------------5---------------1---1---------
A-------3---------------1---1-------6-----------6.------3---3-----3.----
E-4-----------4.------3---3-----3.--------------------------------------


e-----------------------------------------------------------------------
B-----------------------------------------------------------------------
G-----------------------------------------5.----5.--------3---3.--------
D-------------------------------------------------------5---5-----------
A-------3---------------1---1.------3.----------------------------------
E-4-----------4.------3---3---------------------------------------------


e-----------------------------------------------------------------------
B-----------------------------------------------------------------------
G-----------------------------------------------------------------------
D-----------------------------------------5---------------1---1---------
A-------3---------------1---1-------6-----------6.------3---3-----3.----
E-4-----------4.------3---3-----3.--------------------------------------


e-----------------------------------------------------------------------
B-----------------------------------------------------------------------
G-----------------------------------------5.----5.--------3---3.--------
D-------------------------------------------------------5---5-----------
A-------3---------------1---1.------3.----------------------------------
E-4-----------4.------3---3---------------------------------------------


e-----------------------------------------------------------------------
B-----------------------------------------------------------------------
G-------5.----5.--------3---3.------------------------------------------
D---------------------5---5---------------------------------------------
A-3.--------------------------------------------------------------------
E-----------------------------------------------------------------------


- #2

- #3


#4

e-----------------------------------------------------------------------
B-----------------------------------------------------------------------
G-----------------------------------------------------------------------
D-----------------------------------------5---------------1---1---------
A-------3---------------1---1-------6-----------6.------3---3-----3.----
E-4-----------4.------3---3-----3.--------------------------------------


e-----------------------------------------------------------------------
B-----------------------------------------------------------------------
G-----------------------------------------5.----5.--------3---3.--------
D-------------------------------------------------------5---5-----------
A-------3---------------1---1.------3.----------------------------------
E-4-----------4.------3---3---------------------------------------------


e-----------------------------------------------------------------------
B-----------------------------------------------------------------------
G-----------------------------------------------------------------------
D-----------------------------------------5---------------1---1---------
A-------3---------------1---1-------6-----------6.------3---3-----3.----
E-4-----------4.------3---3-----3.--------------------------------------


e-----------------------------------------------------------------------
B-----------------------------------------------------------------------
G-----------------------------------------5.----5.--------3---3.--------
D-------------------------------------------------------5---5-----------
A-------3---------------1---1.------3.----------------------------------
E-4-----------4.------3---3---------------------------------------------


e-----------------------------------------------------------------------
B-----------------------------------------------------------------------
G-----------------------------------------------------------------------
D-----------------------------------------5---------------1---1---------
A-------3---------------1---1-------6-----------6.------3---3-----3.----
E-4-----------4.------3---3-----3.--------------------------------------


e-----------------------------------------------------------------------
B-----------------------------------------------------------------------
G-----------------------------------------5.----5.--------3---3.--------
D-------------------------------------------------------5---5-----------
A-------3---------------1---1.------3.----------------------------------
E-4-----------4.------3---3---------------------------------------------


e-----------------------------------------------------------------------
B-----------------------------------------------------------------------
G-----------------------------------------------------------------------
D-----------------------------------------5---------------1---1---------
A-------3---------------1---1-------6-----------6.------3---3-----3.----
E-4-----------4.------3---3-----3.--------------------------------------


e-----------------------------------------------------------------------
B-----------------------------------------------------------------------
G-----------------------------------------5.----5.--------3---3.--------
D-------------------------------------------------------5---5-----------
A-------3---------------1---1.------3.----------------------------------
E-4-----------4.------3---3---------------------------------------------


e-----------------------------------------------------------------------
B-----------------------------------------------------------------------
G-------5.----5.--------3---3.------------------------------------------
D---------------------5---5---------------------------------------------
A-3.--------------------------------------------------------------------
E-----------------------------------------------------------------------


- #2


#5

e-----------------------------------------------------------------------
B-----------------------------------------------------------------------
G-----------------------------------------------------------------------
D-----------------------------------------5---------------1---1---------
A-------3---------------1---1-------6-----------6.------3---3-----3.----
E-4-----------4.------3---3-----3.--------------------------------------


e-----------------------------------------------------------------------
B-----------------------------------------------------------------------
G-----------------------------------------5.----5.--------3---3.--------
D-------------------------------------------------------5---5-----------
A-------3---------------1---1.------3.----------------------------------
E-4-----------4.------3---3---------------------------------------------


e-----------------------------------------------------------------------
B-----------------------------------------------------------------------
G-----------------------------------------------------------------------
D-----------------------------------------5---------------1---1---------
A-------3---------------1---1-------6-----------6.------3---3-----3.----
E-4-----------4.------3---3-----3.--------------------------------------


e-----------------------------------------------------------------------
B-----------------------------------------------------------------------
G-----------------------------------------------------------------------
D-----------------------------------5-----------------------------------
A-------3---------------1---1.------3-----------------------------------
E-4-----------4.------3---3---------------------------------------------


e-----------------------------------------------------------------------
B-----------------------------------------------------------------------
G-----------------------------------------------------------------------
D-3---------------------------------------------------------------------
A-1---------------------------------------------------------------------
E-----------------------------------------------------------------------


- #1


#6

e-----------------------------------------------------------------------
B-----------------------------------------------------------------------
G-----------------------------------------------------------------------
D-----------------------------------------5---------------1---1---------
A-------3---------------1---1-------6-----------6.------3---3-----3.----
E-4-----------4.------3---3-----3.--------------------------------------


e-----------------------------------------------------------------------
B-----------------------------------------------------------------------
G-----------------------------------------5.----5.--------3---3.--------
D-------------------------------------------------------5---5-----------
A-------3---------------1---1.------3.----------------------------------
E-4-----------4.------3---3---------------------------------------------


e-----------------------------------------------------------------------
B-----------------------------------------------------------------------
G-----------------------------------------------------------------------
D-----------------------------------------5---------------1---1---------
A-------3---------------1---1-------6-----------6.------3---3-----3.----
E-4-----------4.------3---3-----3.--------------------------------------


e-----------------------------------------------------------------------
B-----------------------------------------------------------------------
G-----------------------------------------5.----5.----------------------
D-----------------------------------------------------------------------
A-------3---------------1---1.------3.--------------------1---1.--------
E-4-----------4.------3---3-----------------------------3---3-----------


e-----------------------------------------------------------------------
B-----------------------------------------------------------------------
G-------5.----5---\-----------------------5.----5---\-------------------
D-----------------------------------------------------------------------
A-3.--------------------1---1.------3.--------------------1---1.--------
E---------------------3---3-----------------------------3---3-----------


e-----------------------------------------------------------------------
B-----------------------------------------------------------------------
G-------5.----5---\-----------------------------------------------------
D-----------------------------------------------------------------------
A-3.--------------------1---1-------------------------------------------
E---------------------3---3---------------------------------------------