20141101

QUIMBY SENKI SE MENEKÜL TAB (SZÓLÓ)

Standard hangolás, Capo a 2. bundon és egy brilliáns Kiss Tibor szóló 3:04 körül.



QUIMBY SENKI SE MENEKÜL SZÓLÓ TAB


e---9-7.----------------------------------------------------------------
B--7------7~------6h7-6--------------------7.--7.--7\6/7\6--/7.---------
G-7---------------------9-7-6--------------7.--7.--7\6/7\6--/7.---------
D-----------------------------9.----------------------------------------
A-----------------------------------------------------------------------
E-----------------------------------------------------------------------


e-2---3-2---------2-------------------2---------------------------------
B-----------5---------------2-------------------------------------------
G---------------------3-----------3-------------------------------------
D-----------------------------------------------------------------------
A-----------------------------------------------------------------------
E-----------------------------------------------------------------------


e-------2---------------2----------------2---------5-2------------------
B-----2-----2---------------2-------------------------------------------
G-2h4---------4---2h4---------2---/7-----------7---------6-----7--------
D-----------------------------------------------------------------------
A-----------------------------------------------------------------------
E-----------------------------------------------------------------------


e-----------------------2---------------2-------------------------------
B---7-------7-----8-----------------------------------------------------
G-9-----9-----9---------------9---9-----------9-------------------------
D---------------------------------8---------------8---------------------
A-----------------------------------------------------------------------
E-----------------------------------------------------------------------


e---------14---14-14-14-14p13-13-13---13-13-13-13h14-14-14---14-14-14---
B-/12-----12---12-12-12-12----12-12---12-12-12-12----12-12---12-12-12---
G-----------------------------------------------------------------------
D-----------------------------------------------------------------------
A-----------------------------------------------------------------------
E-----------------------------------------------------------------------


e-14h15-15-15---15-15-15-15---------------------------------------------
B-12----12-12---12-12-12-12-15---15------15----15-14h15-15-15---15-15-15
G---------------------------16---16------16----16-16----16-16---16-16-16
D-----------------------------------------------------------------------
A-----------------------------------------------------------------------
E-----------------------------------------------------------------------


e----------------------------------------14-14-14-14-\---7---\----------
B-14h15-15-15---15-15-15-17---\----------15-15-15-15-\---7---\----------
G-16----16-16---16-16-16-16---\-----------------------------------------
D-----------------------------------------------------------------------
A-----------------------------------------------------------------------
E-----------------------------------------------------------------------


e-2h3-2-----------------------------------------------------------------
B-------2h3p2----------2h3-2--h3----------------------------------------
G-------------4--------------------2------------------------------------
D-----------------------------------------------------------------------
A-----------------------------------------------------------------------
E-----------------------------------------------------------------------


e-2---2---2---2---2-----2---2-----10-10-x-10-x-10-x-9-9-----\\\---------
B-8-8-8-8-8-8-8-8-7-----7---7------7--7-x--7-x--7-x-7-7-----\\\---------
G-------------------9.--------9----9--9-x--9-x--9-x-9-9-----\\\---------
D-----------------------------------------------------------------------
A-----------------------------------------------------------------------
E-----------------------------------------------------------------------


e-2---------------------2-----------------------------------------------
B-3---------------2h3-------------3-------------------------------------
G-4---------------------------2---2-------KEYBOARD----------------------
D-4-------------------------------4-------------------------------------
A-2-------------------------------5-------------------------------------
E-----------------------------------------------------------------------


e-5---------------------5---------4-------------------------------------
B-3-------------------------------5-------------------------------------
G-4---------------2h4---------2---4-------KEYBOARD----------------------
D-5-------------------------------2-------------------------------------
A-x---------------------------------------------------------------------
E-3---------------------------------------------------------------------


e-2---------------------2-----------------------------------------------
B-3---------------2h3-------------3-------------------------------------
G-4---------------------------2---2-------KEYBOARD----------------------
D-4-------------------------------4-------------------------------------
A-2-------------------------------5-------------------------------------
E-----------------------------------------------------------------------


e-5---------------------5---------------4-------------------------------
B-3-------------------------------5-------------------------------------
G-4---------------2h4---------2---4-------KEYBOARD----------------------
D-5-------------------------------2-------------------------------------
A-x---------------------------------------------------------------------
E-3---------------------------------------------------------------------