20150512

SZEKERES ADRIENN OLYAN, MINT TE TAB (MÓKOS JÁNOS GUITAR COVER)

Mókos János instrumentális videója Szekeres Adrienn - Olyan, mint Te című dala alapján.


SZEKERES ADRIENN OLYAN, MINT TE INSTRUMENTÁLIS TAB

Part 1

e-----------------------------------------------------------------------
B----------------------10.----------------------------------------------
G-------------9.--10--------12~----------10.--9~------------9-----------
D--------12---------------------------------------12.--11-----12~--\----
A---12------------------------------------------------------------------
E-----------------------------------------------------------------------


e-----------------------------------------------------------------------
B-----------------------10.--11~-------------------------11-----10~-----
G--------------9.--10-----------------------------------------12--------
D---------12------------------------------12.--10---10.-----------------
A---/12-----------------------------------------------------------------
E-----------------------------------------------------------------------


e-----------------------------------------------------------------------
B-----10---10.--10--h11p10----------------------------------------------
G------------------------------12~--------------------------------------
D---10------------------------------------------------------------------
A-----------------------------------------------------------------------
E-----------------------------------------------------------------------


e-----------------------------------------------------------------------
B-----------------------------------------------------------------------
G----------------12---9.--12~----10-----9--------10--/--12.-9~----------
D-----------------------------------------12~---------------------------
A---12-12---12.---------------------------------------------------------
E-----------------------------------------------------------------------


e-----------------------------------------------------------------------
B-----------------------------------------------------------------------
G------------------9p10.------------------------------------------------
D---12.--11---11.---------12~---\---------------------------------------
A-----------------------------------------------------------------------
E-----------------------------------------------------------------------



Part 2

e-----------------------------------------------------------------------
B-----------------------------------------------------------------------
G---/10---10.--10-/-12.--12~----\---------------------------------------
D-----------------------------------------------------------------------
A-----------------------------------------------------------------------
E-----------------------------------------------------------------------


e-----------------------------------------------------------------------
B-----------------------------------------------------------------------
G---9-/-10-\-9~---------------------------------------------------------
D------------------12.--------------------------------------------------
A-----------------------------------------------------------------------
E-----------------------------------------------------------------------


e-----------------------------------------------------------------------
B--------------------------------------10---11---10~--------------------
G---/10---9.--10-/-12.--12.--12-----------------------------------------
D---------------------------------10.-----------------------------------
A-----------------------------------------------------------------------
E-----------------------------------------------------------------------


e-----------------------------------------------------------------------
B-------------13~------11-p-10------------------------------------------
G--------------------------------12~----10.-----------------------------
D---12.--12-------------------------------------------------------------
A-----------------------------------------------------------------------
E-----------------------------------------------------------------------


e-----------------------------------------------------------------------
B------------10---11---10h11p10-----------------------------------------
G------10-12-------------------12~----10.-------------------------------
D---12------------------------------------------------------------------
A-----------------------------------------------------------------------
E-----------------------------------------------------------------------


e-----------------------------------------------------------------------
B-----------------------------------------------------------------------
G-------------10.--10-----10~-------10---12-/-14.--14---\---------------
D-----------------------12--------12------------------------------------
A---12-/-13-------------------------------------------------------------
E-----------------------------------------------------------------------



Part 3

e-----------------------------------------------------------------------
B-----------------------10.---------------------------------------------
G--------------9.--10--------12~----------10.--9~------------9----------
D---------12.--------------------------------------12.--11-----12~--\---
A---/12-----------------------------------------------------------------
E-----------------------------------------------------------------------


e-----------------------------------------------------------------------
B----------------------10.--11~-------------------------11-----10~------
G-------------9.--10-----------------------------------------12---------
D--------12------------------------------12.--10---10.------------------
A---12.-----------------------------------------------------------------
E-----------------------------------------------------------------------


e-----------------------------------------------------------------------
B---10---10.--10--h11p10--h11p10----------------------------------------
G-------------------------------12~-------------------------------------
D-----------------------------------------------------------------------
A-----------------------------------------------------------------------
E-----------------------------------------------------------------------


e-----------------------------------------------------------------------
B-----------------------------------------------------------------------
G----------------12---9.--12~----10-----9--------10-10-/-12.-9~---------
D-----------------------------------------12~---------------------------
A---12-12---12.---------------------------------------------------------
E-----------------------------------------------------------------------


e-----------------------------------------------------------------------
B-----------------------------------------------------------------------
G------------------9p10.------------------------------------------------
D---12.--11---11.---------12~---\---------------------------------------
A-----------------------------------------------------------------------
E-----------------------------------------------------------------------



Part 4

e-----------------------------------------------------------------------
B-----------------------------------------------------------------------
G---/10---10.--10-/-12.--12~----\---------------------------------------
D-----------------------------------------------------------------------
A-----------------------------------------------------------------------
E-----------------------------------------------------------------------


e-----------------------------------------------------------------------
B-----------------------------------------------------------------------
G---/9---10---9~-----h10p9----------------------------------------------
D-------------------------12---\----------------------------------------
A-----------------------------------------------------------------------
E-----------------------------------------------------------------------


e-----------------------------------------------------------------------
B--------------------------------------10---11---10~--------------------
G---/10---9.--10-/-12.--12.--12-----------------------------------------
D---------------------------------10.-----------------------------------
A-----------------------------------------------------------------------
E-----------------------------------------------------------------------


e-----------------------------------------------------------------------
B-------------13~------11-p-10------------------------------------------
G--------------------------------12~----10.-----------------------------
D---12.--12-------------------------------------------------------------
A-----------------------------------------------------------------------
E-----------------------------------------------------------------------


e-----------------------------------------------------------------------
B------------10---11---10h11p10-----------------------------------------
G------10-12-------------------12~----10.-------------------------------
D---12------------------------------------------------------------------
A-----------------------------------------------------------------------
E-----------------------------------------------------------------------


e-----------------------------------------------------------------------
B-----------------------------------------------------------------------
G-------------10.--10-----10~-------10---12-/-14.--14~------------------
D-----------------------12--------12------------------------------------
A---12---13-------------------------------------------------------------
E-----------------------------------------------------------------------



Part 5

e-----------------------------------------------------------------------
B-----------------------12.---------------------------------------------
G-------------11.--12--------14~----------12.--11~------------11--------
D--------14-----------------------------------------14.--13-----14~-----
A---14.-----------------------------------------------------------------
E-----------------------------------------------------------------------


e-----------------------------------------------------------------------
B-----------------------12---13~-------------------------13-----12~-----
G-------------11.--12-----------------------------------------14--------
D--------14-------------------------------14.--12---12.-----------------
A---14.-----------------------------------------------------------------
E-----------------------------------------------------------------------


e-----------------------------------------------------------------------
B---/12---12---12--h13p12--h13p12---------------------------------------
G--------------------------------14~------------------------------------
D-----------------------------------------------------------------------
A-----------------------------------------------------------------------
E-----------------------------------------------------------------------


e-----------------------------------------------------------------------
B-----------------------------------------------------------------------
G---------------14---11.--14~----12----11--------12-12-/-14.--11\10/11~-
D-------------------------------------------14~-------------------------
A--14-14---14.----------------------------------------------------------
E-----------------------------------------------------------------------


e-----------------------------------------------------------------------
B-----------------------------------------------------------------------
G------------------12p11.-----------------------------------------------
D---14.--13---13.----------14~---\--------------------------------------
A-----------------------------------------------------------------------
E-----------------------------------------------------------------------



Part 6

e-----------------------------------------------------------------------
B---/13~----12------------------------12---15---12----------------------
G----------------14~----12.------12h14---------------14~----12.---------
D-----------------------------------------------------------------------
A-----------------------------------------------------------------------
E-----------------------------------------------------------------------


e-----------------------------------------------------------------------
B-----------------------------------------------------------------------
G---13/14---14--------------------------------------------------12-14-\-
D----------------12~------12-\-10---9~---\-----------------12-14--------
A--------------------------------------------------10-12/14-------------
E--------------------------------------------/10-12---------------------


e-----------------------------------------------12----------------------
B---/13~----12------------------------12---15--------12~----------------
G----------------14~----12.------12-14------------------------12~---\---
D-----------------------------------------------------------------------
A-----------------------------------------------------------------------
E-----------------------------------------------------------------------


e---12--12~-------12.--11/12---11---------------------------------------
B-----12-----12.--------------------13-12~---\--------------------------
G-----------------------------------------------------------------------
D-----------------------------------------------------------------------
A-----------------------------------------------------------------------
E-----------------------------------------------------------------------



Part 7

e-----------------------------------------------------------------------
B-------------------12.-------------------------------------------------
G---------11.--12--------14~----------12.--11~------------11------------
D---/14-----------------------------------------14.--13-----14~--\------
A-----------------------------------------------------------------------
E-----------------------------------------------------------------------


e-----------------------------------------------------------------------
B------------------------12.--13~--------------------------13-----12~---
G--------------11.--12------------------------------------------14------
D---------14-------------------------------12h14-12---12.---------------
A---/14-----------------------------------------------------------------
E-----------------------------------------------------------------------


e-----------------------------------------------------------------------
B---/12---12.--12--h13-12--h13p12---------------------------------------
G--------------------------------14~------------------------------------
D-----------------------------------------------------------------------
A-----------------------------------------------------------------------
E-----------------------------------------------------------------------


e-----------------------------------------------------------------------
B-----------------------------------------------------------------------
G---------------14---11.--14~----12----11--------12-12-/-14.--11\10/11~-
D-----------------------------------------14~---------------------------
A--14-14---14.----------------------------------------------------------
E-----------------------------------------------------------------------


e-----------------------------------------------------------------------
B-----------------------------------------------------------------------
G------------------12p11.-----------------------------------------------
D---14.--13---13.----------14~---\--------------------------------------
A-----------------------------------------------------------------------
E-----------------------------------------------------------------------



Part 8

e-----------------------------------------------------------------------
B------------------------14.--------------------------------------------
G--------------13.--14--------16~----------14.--13~------------13-------
D---------16-----------------------------------------16.--15-----16~--\-
A---/16-----------------------------------------------------------------
E-----------------------------------------------------------------------


e-----------------------------------------------------------------------
B-----------------------14.--15~-------------------------15-----14~-----
G-------------13.--14-----------------------------------------16--------
D--------16-------------------------------16.--14---14.-----------------
A---16.-----------------------------------------------------------------
E-----------------------------------------------------------------------


e-----------------------------------------------------------------------
B--17(19)(17)-15p14-----------------------------------------------------
G------------------16p14\13/14\13-------------------------------14h16p14
D--------------------------------14/16-14------------------14h16--------
A----------------------------------------16-14\12--12-14/16-------------
E------------------------------------------------14---------------------


e-----------------------------------------14-------14-------17-17-------
B--------------------------------17-------------------------------------
G--16(18)-(16)p14--16--14-16(18)---16(18)---16(18)---16(18)-------16-14-
D----------------16--16-------------------------------------------------
A-----------------------------------------------------------------------
E-----------------------------------------------------------------------


e-----------------------------------------------------------------------
B--17(19)-----(19)-(17)-14----------------------------------------------
G-------------------------16(18)(16)p14--16--14~------------------------
D--------------------------------------16--16-------16~------\----------
A-----------------------------------------------------------------------
E-----------------------------------------------------------------------



Part 9

e-----------------------------------------------------------------------
B-------------------15(17)---(15)-15-14---------------------------------
G---------14.--16.------------------------16---14-----------------------
D---/16.--------------------------------------------16.--14h16~---------
A-----------------------------------------------------------------------
E-----------------------------------------------------------------------


e-----------------------------------------------------------------------
B----------------------------------17-----------------------------------
G--------------------14-16(18)-------16p14--14---16(18)---16(18)~~~---\-
D------------------14---------------------16----------------------------
A---14\12--12-14/16-----------------------------------------------------
E--------14-------------------------------------------------------------


e---/14.----16.--16(17)---16--------------------------------------------
B-----------------------------------------------------------------------
G-----------------------------------------------------------------------
D-----------------------------------------------------------------------
A-----------------------------------------------------------------------
E-----------------------------------------------------------------------


e-----------------------------------------------------------------------
B-----------------------14.---------------------------------------------
G-------------13.--14--------16~----------14.--13~------------13.-------
D--------16-----------------------------------------16.--15-------------
A---16------------------------------------------------------------------
E-----------------------------------------------------------------------


e-----------------------------------------------------------------------
B-----------------------------------------------------------------------
G------------13-14p13---------------------------------------------------
D---16-15-16----------16~-----------------------------------------------
A-----------------------------------------------------------------------
E-----------------------------------------------------------------------