20150721

ÉN MEG AZ ÉNEK VÁRJ MÍG FELKEL MAJD A NAP TAB (LERCH ISTVÁN)

Várj míg felkel majd a nap 30 másodpercben, Bérczesi Róbert előadásában.



ÉN MEG AZ ÉNEK VÁRJ MÍG FELKEL MAJD A NAP TAB


    Em              D       C       G       G       A
e---3---------------2-------0-------------------------------------------
B-----------0-------------------------------0-------2-------------------
G-------0-------0-------2-------0---0-----------0-------2---------------
D-------------------0-------------------0-------------------------------
A---------------------------3---------------2-------0-------------------
E---0-------------------------------3-----------------------------------

    D
e---------------------------3p2p0---2-----------------------------------
B---3---------------3-------------------3-------------------------------
G-------2-------2-------2-------------------2---------------------------
D---0-------0-----------------------------------0-----------------------
A-----------------------------------------------------------------------
E-----------------------------------------------------------------------

    Em                      D       C       G       G       A
e---3---------------3-------2-------0-----------------------------------
B-----------0---------------------------------------0-------2-----------
G-------0-------0-------0-------2-------0---0-----------0-------2-------
D---------------------------0-------------------0-----------------------
A-----------------------------------3---------------2-------0-----------
E---0---------------------------------------3---------------------------




    Bm
e-----------------------------------------------------------------------
B---3---------------3---------------------------------------------------
G-------4-------4-------4-----------------------------------------------
D-----------4-----------------------------------------------------------
A---2-------------------------------------------------------------------
E-----------------------------------------------------------------------

    C                       D       Em      D       Bm
e---0---------------0-------2-------3-------2---------------------------
B-----------1---------------------------------------3-------------------
G-------0-------0-------0-------2-------0-------2-------4---------------
D---------------------------0-------2-------0---------------------------
A---3-----------------------------------------------2-------------------
E-----------------------------------------------------------------------

    E
e---0-------------------------------------------------------------------
B-----------------------------------------------------------------------
G-----------------------------------------------------------------------
D-----------------------------------------------------------------------
A-----------------------------------------------------------------------
E---0-------------------------------------------------------------------



Akkordok

    Em    D     C     G     A     Bm    E

e---0-----2-----0-----3-----0-----2-----0-------------------------------
B---0-----3-----1-----0-----2-----3-----0-------------------------------
G---0-----2-----0-----0-----2-----4-----1-------------------------------
D---2-----0-----2-----0-----2-----4-----2-------------------------------
A---2-----------3-----2-----0-----2-----2-------------------------------
E---0-----------------3-----------------0-------------------------------