20160212

HOLDVIOLA LÁTOD ÉDESANYÁM TAB

Holdviola - Látod Édesanyám egy szál gitár kíséretében.



HOLDVIOLA LÁTOD ÉDESANYÁM TAB


Intro

e-----------------------------------------------------------------------
B---------3-----------0---------3p2-----------0-------------------------
G-------4---4-------4---4-------------4-----4---4-----------------------
D-----4---------0h2-------2---4-----4-----2-------0---------------------
A---2---------4-------------0-----------0-------------------------------
E-----------------------------------------------------------------------


e-----------------------------------------------------------------------
B-----------------------------------------------------------------------
G---2-----0-----------0-----4---------4-3-------------------------------
D-------4---4---2---4---4-0-----4---4-----------------------------------
A-----2-------2---2-----------------------------------------------------
E---3-----------0-----------2-----2-------------------------------------


Látod Édesanyám ...

e-----------------------------------------------------------------------
B---------3-----------0---------3p2-----------0-------------------------
G-------4---4-------4---4-------------4-----4---4-----------------------
D-----4---------0h2-------2---4-----4-----2-------0---------------------
A---2---------4-------------0-----------0-------------------------------
E-----------------------------------------------------------------------



e-----------------------------------------------------------------------
B-----------------------------------------------------------------------
G---2-----0-----------0-----4---------4-3---------3---------------------
D-------4---4---2---4---4-------4---4-----------4-----------------------
A-----2-------2---2-------0---------------------------------------------
E---3-----------0-----------2-----2-------------------------------------


e-----------------------------------------------------------------------
B---------3-----------0---------3p2-----------0-------------------------
G-------4---4-------4---4-------------4-----4---4-----------------------
D-----4---------0h2-------2---4-----4-----2-------0---------------------
A---2---------4-------------0-----------0-------------------------------
E-----------------------------------------------------------------------


e-----------------------------------------------------------------------
B-----------------------------------------------------------------------
G---2-----0-----------0-----4---------4-3-------------------------------
D-------4---4---2---4---4-------4---4-----------------------------------
A-----2-------2---2-------0---------------------------------------------
E---3-----------0-----------2-----2-------------------------------------


Tisza vize ...

e---------------------------------------------0-------------------------
B---3-----3-----------3-----------0-----0-------0-----------------------
G-----4-----4---4-------4---6-------6-----0-------0---------------------
D-------4-----4---5-------5---7-------7-----2---------------------------
A---2---------------5-----------7---------------------------------------
E---------------3-----------5-----------0-------------------------------


e---------2-0-----------------------------------------------------------
B-------3-----3-3-------------------------------------------------------
G-----2---------0-------------------------------------------------------
D---0-----------0-------------------------------------------------------
A-----------------------------------------------------------------------
E---------------3-------------------------------------------------------


Bár ne lettem volna ...

e-----------------------------------------------------------------------
B-------------3-----------2---------3-------------0---------------------
G-----------4---4-------4---4---------0---------0-----------------------
D---------4-----------2-------2---4-----4-----4-------------------------
A-----0-2---------4-0---------------------2-----------------------------
E---3---------------------------3-----------0---------------------------


e-----------------------------------------------------------------------
B-----------------------------3-----------------------------------------
G---2-------------------0-----4-----------------------------------------
D-------4-4h5p4---2-------2---4-----------------------------------------
A---------------------2-----2-2-----------------------------------------
E-------------------0---------------------------------------------------