A következő címkéjű bejegyzések mutatása: álom. Összes bejegyzés megjelenítése
A következő címkéjű bejegyzések mutatása: álom. Összes bejegyzés megjelenítése

20140804

EDDA ÁLOM TAB



EDDA ÁLOM TAB


#1

e-----------------------------------------------------------------------
B-----------------------------------------------------------------------
G-------5.----5.--------3---3.------------5.----5.--------3---3.--------
D---------------------5---5-----------------------------5---5-----------
A-3.--------------------------------3.----------------------------------
E-----------------------------------------------------------------------


e-----------------------------------------------------------------------
B-----------------------------------------------------------------------
G-------5.----5.--------3---3.------------5.----5.--------3---3.--------
D---------------------5---5-----------------------------5---5-----------
A-3.--------------------------------3.----------------------------------
E-----------------------------------------------------------------------


#2

e-----------------------------------------------------------------------
B-----------------------------------------------------------------------
G-----------------------------------------------------------------------
D-5.----5.----5---\-----------------5.----5.----5---\-------------------
A-3.----3.----3---\-----1---1.------3.----3.----3---\-----1---1.--------
E---------------------3---3-----------------------------3---3-----------