A következő címkéjű bejegyzések mutatása: én meg az ének. Összes bejegyzés megjelenítése
A következő címkéjű bejegyzések mutatása: én meg az ének. Összes bejegyzés megjelenítése

20150721

ÉN MEG AZ ÉNEK ENGEM NEM LEHET ELFELEJTENI TAB (SZENES - NÁDAS)

Engem nem lehet elfelejteni ...  
Bérczesi Róbert egy szál gitárral és egy régi Szenes-Nádas dal.


BÉRCZESI RÓBERT ENGEM NEM LEHET ELFELEJTENI TAB


Akkordok

    G      H7     Em     G7     C      C7     E7     A7     D7     G7'

e---3------2------0------1------0------0------0------0------2-----------
B---0------4------0------0------1------1------3------2------1-----------
G---0------2------0------0------0------3------1------0------2-----------
D---0------4------2------0------2------2------2------2------0------3----
A---2------2------2------2------3------3------2------0-------------2----
E---3-------------0------3--------------------0--------------------3----


    Am    Fmaj7    D#    G(add6)

e---0------0-------3------0---------------------------------------------
B---1------1-------4------3---------------------------------------------
G---2------2-------3------0---------------------------------------------
D---2------3-------5------0---------------------------------------------
A---0------3-------6------2---------------------------------------------
E----------x--------------3---------------------------------------------

       G             H7
Engem nem lehet elfelejteni,

       Em             G7
Értem könnyeket illik ejteni,

      C          C7
Lehet így, lehet úgy,

       G             E7
De ha nincs is közös út,

   A7                    D7
Az ábrándjaidban ott leszek ugyanúgy.


ÉN MEG AZ ÉNEK VÁRJ MÍG FELKEL MAJD A NAP TAB (LERCH ISTVÁN)

Várj míg felkel majd a nap 30 másodpercben, Bérczesi Róbert előadásában.



ÉN MEG AZ ÉNEK VÁRJ MÍG FELKEL MAJD A NAP TAB


    Em              D       C       G       G       A
e---3---------------2-------0-------------------------------------------
B-----------0-------------------------------0-------2-------------------
G-------0-------0-------2-------0---0-----------0-------2---------------
D-------------------0-------------------0-------------------------------
A---------------------------3---------------2-------0-------------------
E---0-------------------------------3-----------------------------------

    D
e---------------------------3p2p0---2-----------------------------------
B---3---------------3-------------------3-------------------------------
G-------2-------2-------2-------------------2---------------------------
D---0-------0-----------------------------------0-----------------------
A-----------------------------------------------------------------------
E-----------------------------------------------------------------------

    Em                      D       C       G       G       A
e---3---------------3-------2-------0-----------------------------------
B-----------0---------------------------------------0-------2-----------
G-------0-------0-------0-------2-------0---0-----------0-------2-------
D---------------------------0-------------------0-----------------------
A-----------------------------------3---------------2-------0-----------
E---0---------------------------------------3---------------------------