A következő címkéjű bejegyzések mutatása: Elhagyom a várost gitárszóló. Összes bejegyzés megjelenítése
A következő címkéjű bejegyzések mutatása: Elhagyom a várost gitárszóló. Összes bejegyzés megjelenítése

20121106

EDDA ELHAGYOM A VÁROST TAB (SZÓLÓ)



e-------------------------------------------------------------------
H-------------------------------------------------------------------
G-2(3)(2)-0----------------0-2(3)(2)-0------------------------------
D----------3/5~-----------------------3/5~--------------------------
A-------------------------------------------------------------------
E-------------------------------------------------------------------


e-------------------------------------------------------------------
H-------------------------------------------------------------------
G-0.-3.-5(7).-5.-3(5)(3)(5)(3)(5)(3)~~------------------------------
D-------------------------------------------------------------------
A-------------------------------------------------------------------
E-------------------------------------------------------------------


e-------------------------------------------------------------------
H-----------3''''(5)~~-----------------5'''(7)~--5(7)-5(7)~~----/---
G-2(3)(2)-0----------------0-2(3)(2)-0------------------------------
D-------------------------------------------------------------------
A-------------------------------------------------------------------
E-------------------------------------------------------------------


e---------10---------------------------------8----------------------
H-10''(12)---(12)(10)-8.--10.-8-8-8~--\-----------------------------
G------------------------------9-9--------/9--9~--------------------
D-------------------------------------------------------------------
A-------------------------------------------------------------------
E-------------------------------------------------------------------


e------------6------------------------------------------------------
H---4.-(8)(6)--(8)(6)-4---------------------------/3----------------
G-5.-----------------------------2(3)(2)-0-2-----0--4~---2.-0~------
D--------------------------------------------2-0--------------------
A-------------------------------------------------------------------
E-------------------------------------------------------------------



fillek
       0:50                                        0:57
e---------------------------10--------------------------------------
H---(12)\(10)-10.-8.--10(12)----------------(17)(15)-12-------------
G-------------------------------------------------------14(16)-14~--
D-------------------------------------------------------------------
A-------------------------------------------------------------------
E-------------------------------------------------------------------

        1:04                         1:49                    
e-10----------------------------------------------------------------
H---(12)(10)-8~-----------------------------------------------------
G-------------------------------(16)(14)-12.-12~--------------------
D-------------------------------------------------------------------
A-------------------------------------------------------------------
E-------------------------------------------------------------------


      1:54
e-------------------------------------------------------------------
H-------------------------------------------------------------------
G-(7)(5)p3.-5.-3.-5'''(7)~~-----------------------------------------
D-------------------------------------------------------------------
A-------------------------------------------------------------------
E-------------------------------------------------------------------



      2:01                                  2:15               
e--------------10---------------------------------------------------
H-----8--10(12)--(12)(10)-8-8~--------------------------------------
G-7h9----------------------9--------------3-------------------------
D------------------------------------------5~-----------------------
A-------------------------------------------------------------------
E-------------------------------------------------------------------


      2:23                                     2:28
e-------------------------------------------------------------------
H-----------------------------------15-12---------------------------
G-(7)(5)-3-5'''(7)------------------------14(16)(14)-12.-12~--------
D-------------------------------------------------------------------
A-------------------------------------------------------------------
E-------------------------------------------------------------------